Аккорды «A Change Of Pace»

A Change Of Pace
Музыкальная группа «A Change of Pace» является популярным американским ансамблем. Команда довольно часто гастролирует по США и странам Европы. Группа была основана в 2001 году. Вокалист Тори Джаспер и барабанщик Джонатан Кэллай создали небольшой ансамбль, выступающий на школьных и студенческих вечеринках. В 2003 году к группе присоединились, басист Джонни Абдулла и гитарист Адам Роджерс. Основным музыкальным направлением был выбран инди-рок, поп-рок и пост-хардкор. Команда довольно ярко выделялась… Читать полностью... Музыкальная группа «A Change of Pace» является популярным американским ансамблем. Команда довольно часто гастролирует по США и странам Европы. Группа была основана в 2001 году. Вокалист Тори Джаспер и барабанщик Джонатан Кэллай создали небольшой ансамбль, выступающий на школьных и студенческих вечеринках. В 2003 году к группе присоединились, басист Джонни Абдулла и гитарист Адам Роджерс. Основным музыкальным направлением был выбран инди-рок, поп-рок и пост-хардкор. Команда довольно ярко выделялась из других музыкальных групп и довольно быстро была замечена продюсерами и известными звукозаписывающими компаниями. Им предложили небольшой контракт, который серьезно помог в становлении начинающего коллектива. Команда «A Change of Pace» была замечена продюсером Хорхе Хермандесом. В течение нескольких месяцев музыканты активно записывались в студии «Immortal Records». Результатом этого сотрудничества стал альбом «Change Is The Only Constant». В 2005 году группа выпустила свой первый полный альбом. Только спустя год музыканты порадовали фанатов своим вторым альбомом «Prepare The Masses». Так же в этом же году было сделано заявление о приеме пятого участника, Дэна Паркера. В июне 2008 года вокалист Тори Джаспер официально покинул группу. На данный момент солистом является Микки Бентли. Так же в 2008 году музыканты планируют выпустить новую пластинку, под названием «Just No Better Way». Песни группы с Микки Бентли стали носить более легкий, приятный характер. Этот начинающий певец является яркой противоположностью Тори Джаспера. На данный момент состав группы: Джонатан Кэллай - ударные Джонни Абдулла - бас-гитара Адам Роджерс - гитара Дэн Паркеер - гитара Микки Бентли - вокал Музыкальная группа «A Change of Pace» была создана вокруг нескольких молодых людей имеющих большую страсть к панку и стремящихся выбраться из маленького городка Преории. На данный момент команда имеет огромную армию преданных поклонников, которые стараются поддерживать своих любимцев на всевозможных фестивалях и слетах. Музыканты много путешествуют, они дают огромное количество концертов. Основной публикой «A Change of Pace» являются подростки, студенты. В их музыке звучит множество протестов и вопросов, которые задают в юном возрасте себе молодые люди. Именно благодаря этому команда получила такую любовь и преданность фанатов. Скрыть...
Популярные аккорды A Change Of Pace:
алфавиту | просмотрам | случайно
  • Tuning: Drop D
    
    Intro
    G|-------------------------------------|    |-------|
    D|-------------------------------------|    |-------|
    A|----------55555555-00000000-11111111-|    |-------|
    D|-33333333----------------------------|…
  • Tuning: Drop D
    
    Intro
    G|------------------------|
    D|------------------------|
    A|------------------------|
    D|-0~----0~----0~--00000--|
    
    G|-------------------------------------|
    D|-------------------------------------|
    A|-------------------------------------|
    D|-0-0-888-0-0-888-0-0-888-10101010-10-|…
  • Chords:
    Dsus2:  x00230
    Aadd11: x00220
    D7M  :  3x022x
    Dsus4:  3x023x
    Bm:     x2443x
    Asus4:   x0223x
    A:      x0222x
    
    
    Intro
    
    Dsus2, Aadd11, D7M  , Dsus4 (x2)
    
    
    Verse                      the first three times,…
  • Tuning: Drop D
    
    Intro
    G|-------------------------------------------------|   |-------|
    D|-------------------------------------------------|   |-------|
    A|-------------------------------------333333333333|   |-------|
    D|-55555555555-00000000000-22222000000-------------|x2…
  • Tuning: Drop D
    
    Intro
    G|---------------------------------------------------------------------|
    D|---------------------------------------------------------------------|
    A|-3333333333333-3-3-3333333333333-3-3-00000000000-0-0-00000000000-0-0-|
    D|---------------------------------------------------------------------|…
  • Tuning: Drop D
    
    Intro
    G|--------------------------------------------------------------|
    D|--------------------------------------------------------------|
    A|-3-333-333333-0-0000000000000---------------------------------|
    E|------------------------------5-55555555555555-33333333-2h3p2-|
    
    
    Verse
    G|--------------------------------------------------|
    D|--------------------------------------------------|
    A|-3-333-333333-0-0000000000000------------------3~-|
    E|------------------------------5-55555555555555----|
    
    G|----------------------------------------------------------------|
    D|----------------------------------------------------------------|
    A|-3-333-333333-0-0000000000000-----------------------------------|
    E|------------------------------5-55555555555555-33333333-23-5-3-2|
    
    Chorus
    G|-----------------------------------------------------------------|
    D|-----------------------------------------------------------------|
    A|-3-333-333333-0-0000000000000------------------------------------|
    E|------------------------------5555555555555555-3333333333333333--|…
  • Tuning: Drop D
    
    Intro
    G|--------------------------------|
    D|--------------------------------|
    A|--------------------------------|
    D|000-000-0-888-0-000-0-00-101010-| x2
    
    Verse
    G|------------------------|
    D|------------------------|
    A|------------------------|
    D|-000-0-000-0-888-8-888-8|…
  • Tuning: Drop D
    
    Intro
    G|---------------------|
    D|---------------------|
    A|-555-5h7-777-33-000--|
    D|---------------------| x4
    
    Verse
    G|--------------------------|
    D|--------------------------|
    A|--------------------------|
    E|-00-3-0-2-00-5-00-3-2h3p2-|…
  • Intro:
    G|------------------------------|   
    D|------------------------------|   
    A|------------------------------|   
    D|-0(x14)-4(x14)-0(x14)-4(x14)--|
    
    Verse:
    G|-----------------------------------|   
    D|-----------------------------------|…
  • Tuning: Standard
    
    
    Intro-
    Guitar 1
    e|---------------------------------------------------------------------------|
    B|----------------------------------------------------------------(Ends on)--|
    G|5--5-5-5--5x----------------5--5-5-5--5x----------------------------5~-----|
    D|5--5-5-5--5x--5-5--7-7------5--5-5-5--5x--2-2--3-3---------x2-------5~-----|
    A|3--3-2/3--3x--5-5--7-7------3--3-2/3--3x--2-2--3-3------------------3~-----|
    E|--------------3-3--5-5--------------------0-0--1-1-------------------------|
    
    
    
    Guitar…
  • Main Chords:
        Em  C   G    D
    e|---3----3----3----2----|
    B|---3----3----3----3----|
    G|---0----0----0----2----|
    D|---2----2----0----0----|
    A|---2----3----2---------|
    E|-------------3---------|
    
    
    Intro:
    Em, C,…
  • Tuning: standard
    
    Intro
    G|-----------------------------------|
    D|-----------------------------------|
    A|-----------------------------------|
    E|0000000-0-2222222-2-4444444-4-0~---|
    
    Verse
    G|-----------------|
    D|-----------------|
    A|-2~--------------|
    E|-----0~--4~--0~--|
    
    Pre-Chorus
    G|------------------------------------------------------------------------|
    D|------------------------------------------------------------------------|
    A|-222222222222222--------------------------------------------------------|
    E|-----------------000000000000000-44444444444444444444444444444444-0~---0|
    
    Chorus
    G|-----------------------------------------------------------|
    D|-----------------------------------------------------------|
    A|111111111111-222222222222222-------------------------------|
    E|-----------------------------00000000000000000000000000000-|…
  • Intro
    G|---------------------------------------------------------------|
    D|---------------------------------------------------------------|
    A|--------------------------------------------2222222-0000000----|
    E|-233-3-3-3-3-3-233-3-3-3-3-3-233-3-3-3-3-3------------------3~-|…
  • Tuning: D A D G B e
    
    (5)/(7)=harmonic
    \=shotgun (slide your finger down the neck)
    .=palm mute
    
    Intro
    
    e-|---------------------------------------------------------|
    B-|---------------------------------------------------------|
    G-|---------------------------------------------------------|
    D-|-44------44------44------4440-0------00------00------000-|
    A-|-44------44------44------4440-0(7)(7)00(7)(7)00(7)(7)000-|
    D-|-44(5)(5)44(5)(5)44(5)(5)4440-0(7)(7)00(7)(7)00(7)(7)000-|
    
    e-----------------------------------------------------------|
    B-----------------------------------------------------------|
    G-----------------------------------------------------------|
    D---44------44------44------4440-0------00------00------000-|
    A---44------44------44------4440-0(7)(7)00(7)(7)00(7)(7)000-|
    D---44(5)(5)44(5)(5)44(5)(5)4440-0(7)(7)00(7)(7)00(7)(7)000-|
    
    Verse
    
    e-|---------------------------------------------------------\-----|
    B-|---------------------------------------------------------------|…
  • Tuning: Drop D
    
    Intro
    G|----------------------------------------------------------|
    D|----------------------------------------------------------|
    A|-------------555555555555----------------3333333333333333-|
    D|-555555555555------------2222222222222222-----------------|x2
    
    Verse
    G|-------------------------------------------------------------------|
    D|-------------------------------------------------------------------|
    A|----------------5555555555555555-7777777777777777-3333333333333333-|
    D|5555555555555555---------------------------------------------------|
    
    G|-----------------------------------------------------------------|
    D|-----------------------------------------------------------------|
    A|----------------5555555555555555-7777777777777777-22333222333223-|
    D|5555555555555555-------------------------------------------------|
    
    Pre-Chorus
    G|--------------------------------------------------------------|
    D|--------------------------------------------------------------|
    A|777777777777777-5555555555555555-333333333333333--------------|
    D|-------------------------------------------------5555-44-44-44|
    
    G|--------------------------------------------------------------------------------|
    D|--------------------------------------------------------------------------------|
    A|7777777777777777-555555555555555-00000000000-0-233333333333333333-22-33-22-333-3|
    D|--------------------------------------------------------------------------------|
    
    Chorus
    G|------------------------------------------------------------------|
    D|------------------------------------------------------------------|
    A|-----------------2222222222222222----------------3333333333333333-|
    D|5555555555555555-----------------2222222222222222-----------------|x2
    
    Verse
    G|-----------------------------------------------------|
    D|-----------------------------------------------------|
    A|----------------5555555555555555-7777777777777777-3~-|
    D|5555555555555555-------------------------------------|
    
    G|-----------------------------------------------------------------|
    D|-----------------------------------------------------------------|
    A|----------------5555555555555555-7777777777777777-22333222333223-|
    D|5555555555555555-------------------------------------------------|
    
    pre-Chorus…
  • Intro
    Guitar 1 & 2
    E|--------------------------------------------------|
    B|--------------------------------------------------|
    G|--------------------------------------------------|
    D|-0--0-5-3-0-0-0--0--0-8-7-5-0-0-0--0--0-5-3-0-0-0-|
    A|-0--0-5-3-0-0-0--0--0-8-7-5-0-0-0--0--0-5-3-0-0-0-|
    D|-0--0-5-3-0-0-0--0--0-8-7-5-0-0-0--0--0-5-3-0-0-0-|
    
    (Guitars…
  • Tuning:DADGBe
    
    intro/verse
    e|------------------------------------------|
    B|------------------------------------------|
    G|-------------------4-4----------------6-6-|
    D|-4h6-6-6-4h66-4h66-4-4-4h66-4h66-4h66-6-6-|
    A|-4h6-6-6-4h66-4h66-2-2-4h66-4h66-4h66-4-4-|
    D|-4h6-6-6-4h66-4h66-----4h66-4h66-4h66-----|
    
    e|--------------------------------------------|
    B|--------------------------------------------|
    G|--------------------------------------------|
    D|-4h66-4h66-4h66-9-12-11-9h11p9-12-11-9h11p9-|
    A|-4h66-4h66-4h66-9-12-11-9h11p9-12-11-9h11p9-|
    D|-4h66-4h66-4h66-9-12-11-9h11p9-12-11-9h11p9-|
    
    pre…
  • CHORUS:
      Am          G                   Am
    Its Something More Than Something Less
              G
    Yeah, Its Never Obvious
    F         C                G
    Cuz When I Think About You It's Like The First Time
     Am…
  • Tuning:
    
    e|---------5--7--5-----------5--7--5-----------5-----------------------------|
    B|---5--7-----------7--5--7-----------7--5--7--------------------------------|
    G|---------------------------------------------------------------------------|
    D|---------------------------------------------------------------------------|
    A|---------------------------------------------------------------------------|
    E|---------------------------------------------------------------------------|
    
    e|---------5--7--5-----------5--7--5-----9--7--5-----------------------------|
    B|---5--7-----------7--5--7-----------7--------------------------------------|
    G|---------------------------------------------------------------------------|
    D|---------------------------------------------------------------------------|
    A|---------------------------------------------------------------------------|
    E|---------------------------------------------------------------------------|
    
    2X…
  • Tuned to Drop D
    p=pull off
    ...=let ring
    
    Intro/Verse
    
    Guitar 1
    e----------------------------------------------|
    b----------------------------------------------|
    g----------------------------------------------|
    d-10-10-10-10----------------------------------|
    a-10-10-10-10----------------------------------|
    d-10-10-9--9-----------------------------------|
    
    e----------------------------------------------|
    b----------------------------------------------|
    g----------------------------------------------|
    d-33-7-5-7-5-3-7-5-7-5-33-7-5-7-5-10-10-10-10--|
    a-33-7-5-7-5-3-7-5-7-5-33-7-5-7-5-10-10-10-10--|
    d-33-7p5-7p5-3-7p5-7p5-33-7p5-7p5-10-10-9--9---|
    
    Guitar…
  • Tuning: standard
    
    intro [note: piano is played over this, so some notes sound higher
    than they are]
    e|-----------------------------------------------------------------|
    B|-----3-------3-------3-------3-------3-------3-------3-------3---|
    G|---2-------2---2---2-------2---2---2---2---2-------2---2---2---2-|
    D|-0-----2---------------0-----------------------------------------|
    A|-----------------4---------------2-------2-----0---------0-------|
    E|-----------------------------------------------------------------|
    
    chorus/intro…
  • Capo 1
    
    Standard tuning.
    
    C.                                 G      
    You felt alone since you were only seven
    Am                                 F
    Your mother didn't have a clue what to do
    C…
  • Tuning:Drop D
    
    Intro
    gtr 1
    e|--------------------------------|
    B|--------------------------------|
    G|-444444-4444444-4444444-4444444-|
    D|--------------------------------|
    A|-222222-2222222-2222222-2222222-|
    D|--------------------------------|
    
    Pre…
  • Tuning: Standard
    
    Intro
    e|------------------------------------------------------------------------------------------|
    B|------------------------------------------------------------------------------------------|
    G|9-9-9-9-9-9-9-9-9-9-9-9-8-8-8--x9--9-9-9-9-9-9-9-9-9-9-9-9-9-9----------------------------|
    D|------------------------------------------------------------------------------------------|
    A|------------------------------------------------------------------------------------------|
    E|------------------------------------------------------------------------------------------|
    
    Bridge
    e|-------------------0-0-\\\\---------------------------------------------------------------|
    B|-------------------0-0-\\\\---------------------------------------------------------------|
    G|8-8-8-8-9-9-9--x6--1-1-\\\\---------------------------------------------------------------|
    D|-------------------2-2-\\\\---------------------------------------------------------------|
    A|-------------------2-2-\\\\---------------------------------------------------------------|
    E|-------------------0-0-\\\\---------------------------------------------------------------|
    
    Verse…
  • Tuning:Standard
    
    VERSE
    
    Palm muted when playing the power chords
    e|---------------------|
    B|---------------------|
    G|---5-----2-----------| x4
    D|---5-----2-----2-----|
    A|---3-----0-----2-----|
    E|---------------0-----|…
  • Tuning:DADGBe
    
    intro
    e|-------------------------------------------------|
    B|-------------------------------------------------|
    G|-------------------------------------------------|
    D|-------------------------------------------------|
    A|-4-666-4-666-4-666-4-666-8-999-8-999-8-999-8-999-|
    D|-------------------------------------------------|
    pm…
  • intro (repeat twice*)
    (lead)
    e ---------15--------------15------------------------------|
    B -10--13------13------13------10--10-10-10-10-10-10-10----|
    G -----------------12--------------------------------------|
    D ---------------------------------------------------------|
    A…
Наверх