Аккорды «A Global Threat»

A Global Threat
Известные оглушительным hardcore punk’овым звучанием, A Global Threat первоначально сформировалась в Мэне приблизительно в 1997, но скоро переместились к их постоянной дислокации, в Бостон, где они оказывали поддержку Mark Unseen из группы Unseen. Он присоединился к ним через нескольких лет - когда играл на Until We Die 1999, и их дебютном лонгплее, под названием What the Fuck Will Change? - но в конечном счете он оставил группу, когда стало слишком сложно играть в двух группах сразу. За эти годы,… Читать полностью... Известные оглушительным hardcore punk’овым звучанием, A Global Threat первоначально сформировалась в Мэне приблизительно в 1997, но скоро переместились к их постоянной дислокации, в Бостон, где они оказывали поддержку Mark Unseen из группы Unseen. Он присоединился к ним через нескольких лет - когда играл на Until We Die 1999, и их дебютном лонгплее, под названием What the Fuck Will Change? - но в конечном счете он оставил группу, когда стало слишком сложно играть в двух группах сразу. За эти годы, парни появились на различных компиляциях и выпустили многочисленный EPs, сплиты, и 7 «s, они изъездили бесчисленные мили, совершающая поездки в национальном масштабе. Потом они появляются на Punk Core Records в 2002 году; лейбл также переиздал альбом - What the Fuck Will Change? с двумя бонус треками, в тот же самый год. Имея меняющийся состав за эти годы, к 2006 году A Global Threat включала вокалиста/гитариста - Bryan Lothian, барабанщика - Michael Graves и басиста John Curran. Парни соединились с BYO Records, которые потом выпустили Where the Sun Never Sets в феврале 2006. Скрыть...
Популярные аккорды A Global Threat:
алфавиту | просмотрам | случайно
  • Intro repeat 2x 
    G:---------------------------------------------
    D:--------------------------------------------- 
    A:--222222222222--4-5-0------------------------
    E:-----------------------333333333333----------
    
    
    
    Verse repeat…
  • Intro:
    E]----------------------------------------------------[ x4
    B]----------------------------------------------------[
    G]---7-7-7-7--------------------10-10-10-10-----------[
    D]---7-7-7-7--7-7-7-7--8-8-8-8--10-10-10-10-----------[
    A]---5-5-5-5--7-7-7-7--8-8-8-8--8---8--8--8-----------[
    E]------------5-5-5-5--6-6-6-6------------------------[
    
    (2nd…
  • Verse
    e---------------------------- 
    B---------------------------- 
    G--5-5--5--------5-5--5------ 
    D--5-5--5-3-3--3-5-5--5-3-3-- 
    A--3-3--3-3-3--3-3-3--3-3-3-- 
    E---------1-1--1--------1-1-- 
    
    Chorus
    e--------------------------------------------------------…
  • Intro
    e|----------------------------------      
    B|----------------------------------     
    G|----------------------------------     
    D|-8--8-8-8-8-8-8-8-8-8-8-8-8-8-8---      
    A|-8--6-8-8-8-8-8-8-8-8-8-8-8-8-8---     
    E|-6--6-6-6-6-6-6-6-6-6-6-6-6-6-6---…
  • Intro 
    E---------------------------- 
    B---------------------------- 
    G---------------------------- 
    D-------------5-5------------ 
    A-3--3-2-2--2-3-3--5-5--7-7-- 
    E-1--1-0-0--0------3-3--5-5-- x3 
    
    E--------------------------------…
  • I:
    e----4--6--7-----7--6-----7--6-----6--4-------------------
    B------------5--------7--------4--------------------------
    G---------------------------------------------------------4x
    D---------------------------------------------------------
    A---------------------------------------------------------
    E---------------------------------------------------------
    
    e---------------------------------------------------------
    B---------------------------------------------------------
    G----1--3--4-----4--3-----4--3-----3--1-------------------4x
    D-------------2--------4--------1-------------------------
    A---------------------------------------------------------
    E---------------------------------------------------------
    
    V:
    e---------------------------------------------------------
    B---------------------------------------------------------
    G----9---8--------------------11--------------------------4x
    D----9---8---6---8---9---11---11--------------------------
    A----7---6---6---8---9---11---9---------------------------
    E------------4---6---7---9--------------------------------
    
    C:
    e--------------------------------------------------------
    B--------------------------------------------------------
    G-------9------------------------------------------------4x
    D---9---9---6---4---6---4--------------------------------
    A---9---7---6---4---6---4--------------------------------
    E---7-------4---2---4---2--------------------------------
    
    Other…
  • Intro/Verse
    E-------------
    B-------------
    G-----9---9---
    D--10-9-7-9-5-
    A--10-7-7-7-5-
    E--8----5---3-
    
    Chorus
    E-------
    B-------
    G-------
    D-3-7-5-
    A-3-7-5-
    E-1-5-3-
    
    
Наверх