Аккорды «Abandoned Pools»

Abandoned Pools
Мульти-инструменталист и исполнитель / исполнители Томми Вальтера проходит алиасAbandoned Pools. Вальтер взял бас-гитаре в школьных классах и высшей школы был классически обученных валторна игрока. Он поступил в университет в Тихоокеанском Стоктон, Калифорния, где он учился и преподавал теорию музыки (а таких, начале 20-го века, 12-тон и модальные композиторы, как Шенберга, Бартока, Стравинского). Но преподавание не исполнить его желание играть рок-музыку, как он искал другие аналогичные единомышленников… Читать полностью... Мульти-инструменталист и исполнитель / исполнители Томми Вальтера проходит алиасAbandoned Pools. Вальтер взял бас-гитаре в школьных классах и высшей школы был классически обученных валторна игрока. Он поступил в университет в Тихоокеанском Стоктон, Калифорния, где он учился и преподавал теорию музыки (а таких, начале 20-го века, 12-тон и модальные композиторы, как Шенберга, Бартока, Стравинского). Но преподавание не исполнить его желание играть рок-музыку, как он искал другие аналогичные единомышленников музыкантов в подавляющем LA поп / рок-сцены. n В сотрудничестве с площади исполнитель / исполнители E приводит к полосе угри, но Уолтер вскоре покинул проект, несмотря на обещание Eeels’ 1996 Прекрасный дебют Freak. По его собственным снова, Вальтер holed в его квартире, и начал писать и записи оригинального материала. Эти треки были генезисAbandoned Pools, который дебютировал с гуманитарным ЛП в сентябре 2001 года. А. П. возвратился в 2005 году с Реверберация ЕР и полной длины для Всеобщей озаглавленный Вооруженные до зубов Скрыть...
Популярные аккорды Abandoned Pools:
алфавиту | просмотрам | случайно
  • -|--------------------|-1----------------1----------------3----------------3-|
    -|-2---------2--------|-3----------------3----------------3----------------3-|
    -|---4---2-----4---2--|-4----------------4----------------4----------------4-|
    -|---------5---------5|-4----------------4----------------5----------------5-|
    -|-----5---------5----|-2----------------2----------------5----------------5-|
    -|--------------------|-x----------------x----------------3----------------3-|…
  • Intro
    
    e-----------------------------------|
    B-----------------------------------|
    G-----------------------------------|
    D-1-1-1-1-1-1-1-1-1-1---0-0-3-3-2-1-|
    A-1-1-1-1-1-1-1-1-1-1---0-0-3-3-2-1-|
    D-1-1-1-1-1-1-1-1-1-1---0-0-3-3-2-1-|
    
    Verse
    
    e------------------|
    B------------------|
    G------------------|
    D-0-0-3-3-2-1------|…
  • CHORUS 1
    e|-------------------------------------------|
    B|-------------------------------------------|
    G|--9--------------7----9--------------------|
    D|--9----7----5----7----9----7----5----9-----|
    A|--7----7----5----5----7----7----5----9-----|
    E|-------5----3--------------5----3----7-----|…
Наверх