Аккорды «A.C.A.B.»

A.C.A.B.
Группа из столицы Малайзии г. Куала-Лумпур. С 1994го по 2003й год команда исполняла мелодичный стритпанк/oi!. В 2003-м основатель группы Мегат Хафиз (Megat Hafiz) (гитара, вокал) отправился получать образование в Великобританию. Группа распалась, музыканты занялись своими сайд-проектами (Gerhana Ska Cinta, The Times). Два года спустя, в 2005м, Хафиз вернулся и коллектив собрался вновь, при этом добавив в название характерную для британских групп приставку «The… » (а сам фронтмен взял себе псевдоним… Читать полностью... Группа из столицы Малайзии г. Куала-Лумпур. С 1994го по 2003й год команда исполняла мелодичный стритпанк/oi!. В 2003-м основатель группы Мегат Хафиз (Megat Hafiz) (гитара, вокал) отправился получать образование в Великобританию. Группа распалась, музыканты занялись своими сайд-проектами (Gerhana Ska Cinta, The Times). Два года спустя, в 2005м, Хафиз вернулся и коллектив собрался вновь, при этом добавив в название характерную для британских групп приставку «The… » (а сам фронтмен взял себе псевдоним Max Hafix). Теперь The A.C.A.B. исполняют инди-рок/пост-панк в духе The Libertines и The Bravery, но не отказываются и от своего старого материала. Альбомы: 1997 - A.C.A.B. (Demo ‘95) / Unite & Fight (Demo ‘96) 1998 - Eastern Oi! 2001 - Skinhead 4 Life 2002 - Orang Timur 2004 - Bangun 2006 - This Is The A.C.A.B. (под названием The A.C.A.B.) Скрыть...
Популярные аккорды A.C.A.B.:
алфавиту | просмотрам | случайно
  • Songs in key G
    
    Basic chords
    Verse & intro: G5 B5 C5 D5
    Chorus : E5 D5 C5 B5 C5 D5
    
    If you don't know, the 5th chord mean the power chord and the three chord 
    in the end of chorus is running chords.
    Hear the sound and you…
  • Solo:
    ------------------------------------------------------------------------------------------|
    ------------------------------------------------------------------------------------------|
    ---5(s)-9-9-9-9-9-7-5-5--5(s)-9-9-9-9-9-7-7-7--7-7-9-9-9-9-9-7-5-5-5-5-5-4----4--5--7--9--|
    ------------------------------------------------------------------------------------------|
    ------------------------------------------------------------------------------------------|
    ------------------------------------------------------------------------------------------|
    
    
    ----------------------------------------------------------------------------|
    ----------------------------------------------------------------------------|
    ---5(s)-9-9-9-9-9-7-5-5--5(s)-9-9-9-9-9-7-7-7--7-7-9-9-9-9-9-7-5-5-5-5-5-4--|
    ----------------------------------------------------------------------------|
    ----------------------------------------------------------------------------|
    ----------------------------------------------------------------------------|
    
    (h)-hammer
    (s)-slide…
  • tab bangun..16 tahun , .ini tab pertama saya ,timing tak betul.dgr cd
    
    guitar 1 intro x 2
    e------------------------------------------------------------------------
    b------------------------------------------------------------------------
    g------------------------------------------------------------------------
    d----------5--------------5----------------5--------------5-7-5--5-------
    a----7-5-7--7-5-7---7-5-7--7-5-7--3-5-7-5---7-5-7---7-5-7-------7--7-5-3-
    e--5---------------1------------------------------3---------------------5
    
    
    guitar…
  • Tuning standard
    
    
    ~~~~~~   = vibrato
    h        = hammer
    p        = pull off
    b        = bend
    br       = bend release 
    
    
    [Solo]
    e|---12--------|--12-15-13-12-13-12------------------------------------|
    B|------15b----|-------------------15-12h15p12-12h15p12-12-------------|
    G|-------------|-------------------------------------------------------|
    D|-------------|-------------------------------------------------------|
    A|-------------|-------------------------------------------------------|
    E|-------------|-------------------------------------------------------|…
  • This song is in 'Standard' Tuning
    E-A-D-G-B-E
    
    Listen to the song and try to catch 
    the tab that i have wrote...
    
      INTRO
    e|----------------------------------------------------9---9---9---9-------------|
    B|---10---10---10---10-----12---12---12---12------------------------------------|
    G|------9----9----9----9------9----9----9----9-------9---9---9---9--------------|
    D|------------------------------------------------------------------------------|
    A|------------------------------------------------------------------------------|
    E|------------------------------------------------------------------------------|
    
    e|----------------------9-----------------------------------|
    B|---12---12---12-------12--10----10------------------------|
    G|------9----9----9-----------------------------------------|
    D|----------------------------------------------------------|
    A|----------------------------------------------------------|
    E|----------------------------------------------------------|
    
    e|---------------------------------------------------------------|
    B|-----10---10---10---10----9---9---9---9------7---7---7---7-----|
    G|---9----9----9----9---------9---9---9---9------9---9---9---9---|
    D|---------------------------------------------------------------|
    A|---------------------------------------------------------------|
    E|---------------------------------------------------------------|
    
    e|--------------------------------------------|
    B|---9---9---10---12---10---------------------|
    G|-----9---9----9----9------------------------|
    D|--------------------------------------------|
    A|--------------------------------------------|
    E|--------------------------------------------|
    
    VERSE
    e|------------------------------------------------------------------------|
    B|------------------------------------------------------------------------|
    G|------------------------------------------------------------------------|
    D|-------------------------------------------------------2-2-2--2-2-2-----|
    A|---7-7-7--7-7-7---6-6-6--6-6-6---4-4-4--4-4-4---2-2-2--2-2-2------------|
    E|---5-5-5--5-5-5---4-4-4--4-4-4---2-2-2--2-2-2---------------------------|
    
    e|------------------------------------------------------------------------|
    B|------------------------------------------------------------------------|
    G|-------------------------------------------------------2-2-2--2-2-2-----|
    D|---7-7-7--7-7-7---6-6-6--6-6-6---4-4-4--4-4-4---2-2-2--2-2-2------------|
    A|---5-5-5--5-5-5---4-4-4--4-4-4---2-2-2--2-2-2---------------------------|
    E|------------------------------------------------------------------------|…
  • Tuning :- Standard e a d g b
    
    Intro
    e-----------------------------------
    B-----------------------------------
    G--5-5-----4-4-----2-2--------------
    D--7-7-----7-7-----4-4-----5-5---5-- X 1
    A--7-7-----7-7-----4-4-----3-3---7--
    E--------------------------3-3---7--
    
    Verse.…
  • INTRO:
    
    -----------------------------------------------------------------|
    -----------------------------------------------------------------|
    -----------------------------------------------------------------|
    -----------------------------------------------------------------|
    -------7-7-7-------10-10-10-------3-3-3-------5-5-5--------------|
    -5-5-5-------8-8-8----------1-1-1-------3-3-3--------------------|…
  • I-------------------------------------------------------------------
    I-----------------------7/8-6-5--------7/8-6-5---5h6-5--5-----------
    I--------5-7-7/9-7-5--5---------7-7--7---------7--------------------
    I----5-7------------------------------------------------------------
    I--7----------------------------------------------------------------
    I-------------------------------------------------------------------
    
    I--------------------------------------------------------------------
    I----5----------------------------5-6-7/8--8-8--6-5------------------
    I------7-5---5-7p-5----------5--5-------------------7-7--7-----------
    I--5-------7--------7-5-3--3-----------------------------------------
    I--------------------------------------------------------------------
    I--------------------------------------------------------------------
    
    I--------------------------------------------------------------------
    I--------------------------------------------------------------------
    I-----------------5-7-7/9-7-5----------------------------------------
    I--5-9/5-5----5-7----------------------------------------------------
    I-----------7--------------------------------------------------------
    I--------------------------------------------------------------------…
  • intro
    e||----------------|
    B||----------------|
    G||----------------|
    D||----------------|
    A||--77-----77-----|
    E||--55-----55-----|
    
        VERSE
    e|-------------------------------------------------------------------------|
    B|-------------------------------------------------------------------------|
    G|-------------------------------------------------------------------------|
    D|----------666666-----------222222---777777-----------999999999999--------|
    A|--777777---444444---444444---222222---555555---777777---777777777777-----|
    E|--555555-----------222222---000000-----------555555----------------------|…
  • this is skinhead 4 life.
    here is some legend
    s=slide
    h=hammer
    
    Intro:
    ------------------------------------------------------------------------------------------
    ------------------------------------------------------------------------------------------
    ------------------------------------------------------------------------------------------
    ---------------------2----2---2-----2-3(h)------------------------------------------------
    ---3----3---3---3---3--3-3---3--3-3--------2-----2---2-----2-3(h)--3-----3--------------3-
    --5-5-5---5--5-5--------------------------3--3-3---3---3-3--------5--5-5---5-3-0-23-5-----…
  • Intro (Repeat 4 times)
    
    e||----------------------------------------------------------------------------------|
    B||----------------------------------------------------------------------------------|
    G||----------------------------------------------------------------------------------|
    D||------3-----2-----5-----3-----2-----3-----2-----------------------3-----2-----5---|
    A||--0-0---0-0---0-0---0-0---0-0-------------------3-----5-----3---------------------|
    E||--------------------------------1-1---1-1---1-1---1-1---1-1---3-3---3-3---3-3---3-|
    
    e||----------------------------------------------------------------------------------|
    B||----------------------------------------------------------------------------------|
    G||---------------7-----6-----5-----6------------------------------------------------|
    D||---------------7-----6-----5-----6------------------------------------------------|
    A||---3-----2------------------------------------------------------------------------|
    E||-3---3-3---5-5---5-5---5-5---5-5--------------------------------------------------|
    
    Verse…
Наверх