Аккорды «Adema»

Adema
Основатель группы «Adema» - Марк Чавез, первым, кто к нему присоединился, стал гитарист Марк Ренсом. Следом подключились басист Дэйв Деру и гитарист Тим Флаки, ранее игравший в группе «Juice», затем присоединился ударник Крис Колс, покинувший свой коллектив «Videodrone». Альбомы: - Adema (Released: August 21, 2001) - Insomniac`s Dream EP (Released: October 22, 2002) - Unstable (Released: August 19, 2003)0 В конце 2003-го группу покидает гитарист Майк Рэнсом, а 18 сентября 2004-го из «Adema»… Читать полностью... Основатель группы «Adema» - Марк Чавез, первым, кто к нему присоединился, стал гитарист Марк Ренсом. Следом подключились басист Дэйв Деру и гитарист Тим Флаки, ранее игравший в группе «Juice», затем присоединился ударник Крис Колс, покинувший свой коллектив «Videodrone». Альбомы: - Adema (Released: August 21, 2001) - Insomniac`s Dream EP (Released: October 22, 2002) - Unstable (Released: August 19, 2003)0 В конце 2003-го группу покидает гитарист Майк Рэнсом, а 18 сентября 2004-го из «Adema» уходит вокалист и основатель коллектива Марк Чавез. Оставшиеся музыканты сохранили группу, а замену Марку нашли в лице Люка Карацциоли из группы «Rewind Yesterday». - Planets (Released: April 5, 2005) В конце ноября Люк вернулся в свой старый коллектив, а остальные участники проекта занялись поисками подходящей замены… И в 2006 году у Адемы появляется новый солист - Bobby Reeves, и второй гитарист Ed Faris, оба из группы "LEVEL". Ведутся работы над новым альбомом Kill the Headlights. - Kill The Headlights (2007) Увы, но Bobby Reeves не заменит Марка Чавеза! Август 2009. Мечты сбываются. © Никто и подумать не мог, только мечтали, но Марк снова вернулся в Адему. Тут же появились новости о записи нового ДВД группы в старом составе. Чем же обернётся для Адемы возвращение её исконного вокала? Участники группы Adema Kris Kohls: Drums Dave Deroo: Bass Tim Fluckey: Guitar Mike Ransom: Guitar Marky Chavez: Vocals Дискография «Adema» - 2001 «Insomniac's Dream» - 2002 «Unstable» - 2003 «Planets» - 2005 «Kill The Headlights» - 2007 ссылка на оф. сайт убрана, из-за его отсутствия. Группа ВКонтакте http://vkontakte.ru/club32313 Скрыть...

Теги:

Популярные аккорды Adema:
алфавиту | просмотрам | случайно
  • GTR1 Volume Swell W/ Wah towards the end |
    e|-----------------------------------------|
    B|-----------------------------------------|
    G|-13-13-13-13-13-13-13-13-13-13-13-13 etc-|
    D|-----------------------------------------|
    A|-----------------------------------------|
    E|-----------------------------------------|…
  • Intro
    G|---------------------------------||
    D|------5-7------------------------||
    A|--5-7-----7-5--------------------||
    E|6-------------6------------------||
    
    Chorus (no bass) 2x
    
    Verse (A)
      3x           1x
    G|------------|--------------------------------------||
    D|------------|--------------------------------------||
    A|------------|--------------------------------------||
    E|66-66-66-66-|66-66-66-44/-999----------------------||
    
    Verse…
  • s= slap
    h= hammer on
    p= pull off
    *= let ring 
    
    Intro
    G|-----------------
    D|-----------------
    A|-----------------
    E|-s6-s6---8h9p8---
    
    
    Verse
    G|------------------
    D|------------------
    A|-----9*------8*---
    E|-6*------9*-------
    
    
    Chorus/guitar…
  • Tuning: Drop D - D A D G B e
    
    Intro:
    e|-------------------------------------------------------------------------|
    B|-------------------------------------------------------------------------|
    G|------------------------------------------------------------------8------|
    D|---------8p7--8p7-----------8h10p87-----------8p7--8p7-------------9-8--|
    A|--6h8----------------6h8----------------6h8----------------6h8-----------|
    D|-------------------------------------------------------------------------|
    
    e|-------------------------------------------------------------------------|
    B|-------------------------------------------------------------------------|
    G|-------------------------------------------------------------------------|
    D|--3---------------0---------------1--------------------------------------|
    A|--3---------------0---------------1--------------------------------------|
    D|--3---------------0---------------1--------------------------------------|
    
    Verse:
    e|-------------------------------------------------------------------------|
    B|-------------------------------------------------------------------------|
    G|-------------------------------------------------------------------------|
    D|--3---------------5---------------1--------------------------------------|
    A|--3---------------5---------------1--------------------------------------|
    D|--3---------------5---------------1--------------------------------------|
    
    Chorus:
    e|-------------------------------------------------------------------------|
    B|-------------------------------------------------------------------------|
    G|-------------------------------------------------2----------4------------|
    D|-3-----------0-----------1-----------5-----------2----------4------------|
    A|-3-----------0-----------1-----------5-----------0----------2------------|
    D|-3-----------0-----------1-----------5-----------------------------------|…
  • Intro (00:01)
    G|---
    D|---
    A|---  A faint note that is barely heard at the beginning of the song
    E|1--
    B|---
    
    Intro/Verse/Chorus (00:05)
    G|-----------------------------------------------------------------|
    D|-----------------------------------------------------------------|
    A|-----------------------------------------------------------------|
    E|-----------------7-7-7-7------------------------9-9-9-9----------|
    B|7/9-9-9-9-9-9-9----------7-7-7-7-6-6-6-6-6-6-6----------10-10-10-|
    
    G|--------------------------------------------------------------|
    D|--------------------------------------------------------------|
    A|--------------------------------------------------------------|
    E|-----------------7-7-7-7--------------------------------------|
    B|7/9-9-9-9-9-9-9----------7-7-7-7-6-6-6-6-6-6-6-2-2-1-2-------|
    
    Bridge…
  • Intro
    
    Db)----------------------------------------
    Ab)----------------------------------------
    Db)----------------------------------------
    Gb)----------------------------------------
    Bb)----------------------------------------
    Eb)-19-(x7)-20^--19(x7)-17-----------------
    
    
    Db)-2-2-9-9-9-10-10-10-12-12-13-14---------
    Ab)-2-2-9-9-9-10-10-10-12-12-13-14---------
    Db)-2-2-9-9-9-10-10-10-12-12-13-14---------
    Gb)----------------------------------------
    Bb)----------------------------------------
    Eb)----------------------------------------
    
    Chorus
    
    Db)2-2-2-2-2-2-2-2-5-5-5-5-0-0-0-0-0-0-0-0-10-10-10-10-10-10-
    Ab)2-2-2-2-2-2-2-2-5-5-5-5-5-5-5-5-5-5-5-5-10-10-10-10-10-10-
    Db)2-2-2-2-2-2-2-2-5-5-5-5-7-7-7-7-7-7-7-7-10-10-10-10-10-10-
    Gb)----------------------------------------------------------
    Bb)----------------------------------------------------------
    Eb)----------------------------------------------------------
    
    After…
  • Intro   (2x)
    e]--------------------------------------------------------------------------[
    B]--------------------------------------------------------------------------[
    G]--------11-11-11--7777-------------------99--12-12-12--11-11-11--12-------[
    D]-99999--11-11-11--7777--7---99999--7777--99--12-12-12--11-11-11--12--88888[
    A]-99999--9--9--9---5555--7---99999--7777--77--10-10-10--9--9--9---10--88888[
    E]-77777------------------5---77777--5555------------------------------66666[…
  • Tuning: Drop D - D A D G
    
    Intro:
    G|----------------------------------------------------------|
    D|----------------------------------------------------------|
    A|--------------6-6--4-4------------------------------------|
    D|--3-3--5-5------------------------------------------------|
    
    Verse:
    G|----------------------------------------------------------|
    D|----------------------------------------------------------|
    A|--------------------4-4-----------------------------------|
    D|--3-3--5-5--1-1-------------------------------------------|
    
    Pre-chorus:
    G|----------------------------------------------------------|
    D|----------------------------------------------------------|
    A|--------------6-6--4-4--6-4-------------------------------|
    D|--3-3--5-5--------------------6-3-------------------------|
    
    Chorus:
    G|-----------------------|----------------------------------|
    D|-----------------------|----------------------------------|
    A|-------------6-6--4-4--|-------------------4-4--4-2-------|
    D|--3-3--5-5-------------|--3-3--5-5--1-1--------------5-3--|
    
    Post-chorus:
    G|----------|-----------------------------------------------|
    D|----------|-----------------------------------------------|
    A|------4---|---1----4--------------------------------------|
    D|--3-------|-----------------------------------------------|…
  • e--------6-6-4-4-6-6-----6-6-9-9-8-8-----6-6-4-4-6-6-----6-6-4~
    b----6-6-------------6-6-------------6-6-------------6-6-------
    g--------------------------------------------------------------
    d--------------------------------------------------------------
    a--------------------------------------------------------------
    E--------------------------------------------------------------…
  • TUNING: Drop D and down 2 steps (Bb, F, Bb, Eb, G, C)
    
         Riff 1:
        C |------------------------------------------|
        G |------------------------------------------|
        Eb|------------------------------------------|…
  • Tuning: Drop D - D A D G
    
    Intro/Bridge:
    G|-------------------------1-1--33333-------------|
    D|----------11111-----11111-----------------------|
    A|--3--3-3-------3-3-----------------1-1--222223--|
    D|------------------------------------------------|
    
    Verse:
    G|------------------------------------------------|
    D|------------------------------------------------|
    A|------------------------------------------------|
    D|--3-1----333331----3-1----333331----------------|
    
    Chorus:
    G|---------0-------0-------0-------0--------------|
    D|------------------------------------------------|
    A|--3333333-3333333-33333333-3333333--------------|
    D|------------------------------------------------|…
  • INTRO
    E|----------------------------------------------------||
    B|----------------------------------------------------||
    G|-5----7-8--7/8/7-7/8/7-7/8/7-5----7-8--7/8/7-7/10-8-||
    D|-5-x6-7-8--7/8/7-7/8/7-7/8/7-5-x6-7-8--7/8/7-7/10-8-||…
  • Tuning B F# B E G# C#
    
    intro/Verse
    
    |-------12-----16------12-|
    |----14-------------14----|
    |-13-------13-----13------|
    |-------------------------|
    |-------------------------|
    |-------------------------|
    
    Chorus
    Gtr.1
    
    |----------------|
    |----------------|
    |----------------|
    |-4-4/7-0-0~--2/-|
    |-4-4/7-0-0~--2/-|
    |-4-4/7-0-0~--2/-|
    
    Gtr.2
    
    |------------------------------------------|
    |------14~~----------------14~~------------|
    |-13~~------13~~~~---13~~~------14~~/13~~~-|
    |------------------------------------------|
    |------------------------------------------|
    |------------------------------------------|
    
    Bridge…
  • Tuning: Standard:  E A D G B E
    
    INTRO
    E|---------------------------------||
    B|---------------------------------||
    G|---------------------------------||
    D|---------------------------------||
    A|-1-1-1-1-2-2-2-1-1-1-1-1-2-2-3-3-||
    E|---------------------------------||
    then..
    
    
    E|--------------------||
    B|--------------------||
    G|-3----4----3----4-5-||
    D|-3-x2-4-x2-3-x2-4-5-||
    A|-1----2----1----2-3-||
    E|--------------------||
    
    listen…
  • Intro
    
    Eb)-------------0-0-0-0-0-3------------------0-----------------------------0-
    Ab)-3-3-3-3-3-5------------5-3---3-3-3-3-3-5-----------------//-10-9-5-3-3---
    Db)--------------------------------------------------0^2-0-5^7-5-------------
    Gb)--------------------------------------------------------------------------
    
    2nd…
Наверх