Аккорды «Aereogramme»

Aereogramme
Шотландская четверка Aereogramme образовалась в 1998 году как alternative/progressive rock. В 1999 команда выпустила два виниловых сингла перед заключением сделки с Chemikal Underground Records в начале 2000 года. Первым витком стала запись двух ЕР, а уже позже был выпущен первый полноформатник - A Story in White в 2001 году. За ним в 2003 году последовал альбом Sleep and Release, а вскоре после третьего официального релиза, ЕР Seclusion, команда переехала на Undergroove Records. Несмотря на это,… Читать полностью... Шотландская четверка Aereogramme образовалась в 1998 году как alternative/progressive rock. В 1999 команда выпустила два виниловых сингла перед заключением сделки с Chemikal Underground Records в начале 2000 года. Первым витком стала запись двух ЕР, а уже позже был выпущен первый полноформатник - A Story in White в 2001 году. За ним в 2003 году последовал альбом Sleep and Release, а вскоре после третьего официального релиза, ЕР Seclusion, команда переехала на Undergroove Records. Несмотря на это, группа вернулась на Chemikal Underground в августе 2006 года. Их третий альбом My Heart Has a Wish That You Would Not Go вышел 29 января 2007 года в Британии, Европе и США, а в Японии 14 октября 2006 под названием The Exorcist, в честь одноименного фильма. В недавнем интервью певец Craig. B объяснил паузу между релизами потерей голоса на 6 месяцев. «Мы не знали, насколько долго это будет продолжаться, поэтому все разошлись по своим дорогам в ожидании возвращения моего голоса. Я пошёл к лору и он посоветовал мне есть йогурты, но это не действовало. Единственным, что повлияло на мой голос, стало время, так как я провел последние пару лет, крича каждую ночь, пил виски и курил, и это было убийственным сочетанием. Я думаю, таким образом, моё тело дало мне сигнал остановиться». 11 мая 2007 года на своём сайте Aereogramme объявили: «Нам прискорбно это заявлять, но Aereogramme решили распасться. Причины этого очень сложные и запутанные. Тем не менее, честно было бы сказать, что нескончаемая финансовая борьба в сочетании с нечеловеческими способностями обходить дух времени привели к потерям. Уверяем вас, у нас просто нет сил. Мы очень гордимся теми четырьмя альбомами, которые мы выпустили за последние семь лет. Мы надеемся, что они все так же находят отклик в ваших сердцах. Мы планируем удостоить чести и отпраздновать замечательные знакомства, приобретенные нами, во время финальных шоу летом». Команда отыграла свое последнее шоу на Connect Festival в Инверари, Шотландия, 31 августа 2007 года. Скрыть...
Популярные аккорды Aereogramme:
алфавиту | просмотрам | случайно
  • Standard tuning, Drop D.
    
    ------------------------------------------------------------------------------|
    ------------------------------------------------------------------------------|
    -9-9-9-9-9-9-9-9-9-9-9-9-9-9-9-9-9-9-9-9-9-9-9-9------------------------------|
    -0-0-0-0-0-0-0-0-0-0-0-0-7-7-7-7-7-7-7-7-7-7-7-7---x1-1/2---------------------|
    -7-7-7-7-7-7-7-7-7-7-7-7-7-7-7-7-7-7-7-7-7-7-7-7------------------------------|
    -8-8-8-8-8-8-8-8-8-8-8-8-7-7-7-7-7-7-7-7-7-7-7-7------------------------------|…
  • Standard tuning, drop D
    
    ------------------------------------------------------------------------------|
    ------------------------------------------------------------------------------|
    -13-13-13-13-13-13-6-6-6-6-6-6-8-8-8-8-8-8-6-6-6-6-6-6------------------------|
    -11-11-11-11-11-11-4-4-4-4-4-4-6-6-6-6-6-6-4-4-4-4-4-4------------------------|
    -11-11-11-11-11-11-4-4-4-4-4-4-6-6-6-6-6-6-4-4-4-4-4-4------------------------|
    -11-11-11-11-11-11-4-4-4-4-4-4-6-6-6-6-6-6-4-4-4-4-4-4------------------------|
    
    
    ------------------------------------------------------------------------------|
    ------------------------------------------------------------------------------|
    ------------------------------------------------------------------------------|
    -0-------------7-7-7-7-7--x3-6-6-6-4-4-4--x1----------------------------------|
    -0-------------7-7-7-7-7-----6-6-6-4-4-4--------------------------------------|
    -0-------------7-7-7-7-7-----6-6-6-4-4-4--------------------------------------|
    
    
    ------------------------------------------------------------------------------|
    ------------------------------------------------------------------------------|
    ------------------------------------------------------------------------------|
    -0-------------7-7-7-7-7--x2-0-6-6-6-4-4-6-0-x1-------------------------------|
    -0-------------7-7-7-7-7-----0-6-6-6-4-4-6-0----------------------------------|
    -0-------------7-7-7-7-7-----0-6-6-6-4-4-6-0----------------------------------|…
  • Standard tuning but drop D
    This guitar part is for the piano and the chorus guitar.
    I know there are little variations here and there missed out but the basics are here
     Just listen to the song for the little variations.
    And…
  • ------------------------------------------------------------------------------|
    ------------------------------------------------------------------------------|
    -16-16------------------------------------------------------------------------|
    -x--x--0----------------------------------------------------------------------|
    -14-14-0----------------------------------------------------------------------|
    -15-15-0----------------------------------------------------------------------|…
Наверх