Аккорды «Against Me!»

Against Me!
Against Me! - американская группа, музыка которой представляет собой сплав панк-рока и фолк-рока. Сформирована в 1997-м году в Гэйнсвилле, штат Флорида (США) (Gainesville, Florida). Их первый полноформатный альбом Reinventing Axl Rose был выпущен на лейбле No Idea Records в 2002-м году. С тех пор релизы группы издавались на Misanthrope Records, Crasshole Records, Plan It X Records, Sabot Productions, No Idea Records и Fat Wreck Chords. В декабре 2005-го Against Me! заключили контракт с крупным… Читать полностью... Against Me! - американская группа, музыка которой представляет собой сплав панк-рока и фолк-рока. Сформирована в 1997-м году в Гэйнсвилле, штат Флорида (США) (Gainesville, Florida). Их первый полноформатный альбом Reinventing Axl Rose был выпущен на лейбле No Idea Records в 2002-м году. С тех пор релизы группы издавались на Misanthrope Records, Crasshole Records, Plan It X Records, Sabot Productions, No Idea Records и Fat Wreck Chords. В декабре 2005-го Against Me! заключили контракт с крупным лейблом Sire Records. 10 июля 2007-го вышла их последняя на данный момент пластинка - New Wave. Осенью 2009 года Уорен Оукс покидает Эгей ми!, чтобы открыть мексиканский ресторанчик. его место занял Джордж Ребело, дядька стучащий в Хот Вотер Мьюзик, с которым группа и записала в конце 9 года грядущий полноформатник White Crosses. Состав на начало 2010-го года: Том Гэйбл (Tom Gabel) - гитара, вокал (в группе с 1997-го года) Джеймс Боумэн (James Bowman) - гитара, вокал (в группе с 2000-го года) Эндрю Сьювард (Andrew Seward) - бас, вокал (в группе с 2002-го года) Джордж Ребело (George Rebelo) - ударные (в группе с 2009-го года) Дискография Студийные альбомы: 2002 - Reinventing Axl Rose (No Idea Records) 2003 - As The Eternal Cowboy (Fat Wreck Chords) 2005 - Searching For A Former Clarity (Fat Wreck Chords) 2007 - New Wave (Sire Records) 2010 - White Crosses Концертные альбомы: 2006 - Americans Abroad!!! Against Me!!! Live in London!!! (Fat Wreck Chords) EP: 2000 - Against Me! EP (Crasshole Records) 2001 - Crime as Forgiven By (Plan-It-X Records (CD)/Sabot Productions (7")) 2001 - The Acoustic EP (Sabot Productions) 2002 - The Disco Before The Breakdown (No Idea Records) 2010 - I Was A Teenage Anarchist Синглы: 2004 - Cavalier Eternal 7" (No Idea Records) 2005 - Sink, Florida, Sink 7" (No Idea Records) (в 2007-м переиздан на Sire Records) 2007 - White People For Peace 7" (Sire Records) 2007 - Thrash Unreal 7" (Preorder Exclusive) 2007 - White People For Peace 12" (Sire Records) DVD-релизы: 2004 - We're Never Going Home (Fat Wreck Chords) 2007 - Live At The Key Club (Sire Records) Скрыть...
Популярные аккорды Against Me!:
алфавиту | просмотрам | случайно
  • Tuning: Standard
    
    Intro (Emphasize the last 4 strings)
    
        F#m  
    e|--2--2--2--2--|
    B|--2--2--2--2--|
    G|--2--2--2--2--|
    D|--4--4--4--4--|
    A|--4--4--4--4--|
    E|--2--2--2--2--|
    
    
    Verse (Other guitar just playing power chords,…
  • e|-2---2---2---2---2---2---2---2---2---2---2---2---2---2---------------------
    B|-3---3---3---3---3---3---3---3---3---3---3---3---3---3---------------------
    G|-2---2---2---2---2---2---2---2---2---2---2---2---2---2---------------------
    D|-------------4-------2-------------------4-------2-------------------------
    A|---------------------------------------------------------------------------
    E|---------------------------------------------------------------------------
    
    e|-2---0---2---0---2---2---2---2---2---2---2---2---2---2---2---2---2---2---0-
    B|-3---2---3---2---3---3---3---3---3---3---3---3---3---3---3---3---3---3---2-
    G|-4---2---4---2---2---2---2---2---2---2---2---2---2---2---2---2---2---4---2-
    D|-----------------------------4-------2---------------4-------2-------------
    A|---------------------------------------------------------------------------
    E|---------------------------------------------------------------------------
    
    e|-2---0---2---3---2---2---2---2---2---2---2---2---2---2---2---2---2---------
    B|-3---2---3---3---3---3---3---3---3---3---3---3---3---3---3---3---3---------
    G|-4---2---4---0---4---2---2---2---2---2---2---2---2---2---2---2---2---------
    D|-----------------------------4-------2---------------4-------2-------------
    A|---------------------------------------------------------------------------
    E|---------------------------------------------------------------------------
    
    Chorus:
    e|-3---2---0---2---0---3---2---0---2---0---3---2---0---2---0---2---2---0---2-
    B|-3---3---2---3---2---3---3---2---3---2---3---3---2---3---2---3---3---2---3-
    G|-0---2---2---4---2---0---2---2---4---2---0---2---2---4---2---2---4---2---2-
    D|---------------------------------------------------------------------------
    A|---------------------------------------------------------------------------
    E|---------------------------------------------------------------------------…
  • e---------------|
    b---------------|
    g-----10-----8--|
    d--8--10--8--8--|
    a--8---8--8--6--|
    e--6------6-----|
    
    e------------|
    b------------|
    g-----10--8--|
    d--8--10--8--|
    a--8---8--6--|
    e--6---------|
    
    e-------------|
    b-------------|
    g--12--10--8--|
    d--12--10--8--|
    a--10---8--6--|
    e--10---8--6--|
    
    e-------------|
    b-------------|
    g--12--10--8--|
    d--12--10--8--|
    a--10---8--6--|
    e-------------|
    
    Lyrics:
    
    Please…
  • Chorus:
    
    A         D              A
    Girl, I’m sorry, but I’m leaving.
                                       E
    We’re both at fault, we’re both to blame.
       A                   D                            A
    It wasn’t the other…
  • Tuning: Standard
    
    Chords:
    
       C	   Am	   G	   F
    
    e|-0-------0-------3-------1-|
    B|-1-------1-------3-------1-|
    G|-0-------2-------0-------2-|
    D|-2-------2-------0-------3-|
    A|-3-------0-------3-------3-|
    E|-x-------x-------2-------x-|
    
    *|The…
  • Chords
      Dbm Ab   A   B
    e--4---4---5---7
    B--5---4---5---7
    G--6---5---6---8
    D--6---6---7---9
    A--4---6---7---9
    E--X---4---5---7
    
            Dbm            Ab            A    B
    tell me how could you compromise yourself like this?…
  • e------------------------------------------------
    b------------------------------------------------
    g----------------------------------------4-4-----
    d--------4-4-------------4-4-----------5-----55--
    a------5-----5-5-------5-----5-5---7-7-----------
    e--7-7-------------5-5---------------------------…
  • Tuning: Standard
    
    Intro
    
        E          E
    e|--7--|    |--0--|
    B|--9--|    |--0--|
    G|--9--| or |--1--|
    D|--9--|    |--2--|
    A|--7--|    |--2--|
    E|-----|    |--0--|
    
    
    Verse
    
        E   G#m Am  E     E                 G#m Am  E
    e|--7---4---5---0--|--------------------4---5---0--|
    B|--9---4---5---0--|--------------------4---5---0--|
    G|--9---4---5---1--|--9999999999999999--4---5---1--|
    D|--9---6---7---2--|--9999999999999999--6---7---2--|
    A|--7---6---7---2--|--7777777777777777--6---7---2--|
    E|------4---5---0--|--------------------4---5---0--|
    
    
    Pre-Chorus…
  • Tuning: Standard
    
    Chords:
       A   D   E
    e|-0---2---0-|
    B|-2---3---0-|
    G|-2---2---1-|
    D|-2---0---2-|
    A|-0---x---2-|
    E|-x---x---0-|
    
    If you are counting using the fast tempo that comes in about halfway through,
    each large space…
Наверх