Аккорды «Agent Orange»

Agent Orange
Группа Agent Orange сформировались в 1978. Группа хорошо известна благодаря песням «Bloodstains», «Everything Turns Grey», и «Too Young To Die». С 1980 они выпустили 6 альбомов. Такие как: Living In Darkness(1980) * When You Least Expect It(1984) * This Is The Voice(1986) * Real Live Sound(1990) * Virtually Indestructible(1996) * Greatest & Latest : This That-n-The Other Thing(2000) Вот список группы 1978 года: Mike Palm : Вокал и Гитара (c 1978 до настоящего времени) Steve Soto : Басы и Вокал… Читать полностью... Группа Agent Orange сформировались в 1978. Группа хорошо известна благодаря песням «Bloodstains», «Everything Turns Grey», и «Too Young To Die». С 1980 они выпустили 6 альбомов. Такие как: Living In Darkness(1980) * When You Least Expect It(1984) * This Is The Voice(1986) * Real Live Sound(1990) * Virtually Indestructible(1996) * Greatest & Latest : This That-n-The Other Thing(2000) Вот список группы 1978 года: Mike Palm : Вокал и Гитара (c 1978 до настоящего времени) Steve Soto : Басы и Вокал (1978-1980) James Levesque : Басы и Вокал (1980 - 1988) Brent Liles : Басы и Вокал (1989 - 1995) Sam Bolle : Басы и Вокал (1996 - 2005) Scott Miller : Барабаны и Вокал (1978 - 1988) Derek O’Brien : Барабаны и вокал (1989 - 1995) Charles Quintana : Барабаны и вокал (1996 - 1998) Dusty Watson : Барабаны (1999 - 2000) Steve Latanation : Барабаны (2000 - 2005) Последняя запись Line Up Of Agent Orange в 2000 с лучшими хитами была записана: Mike Palm : Вокал и Гитара Sam Bolle : Басы и Вокал Steve Latanation : Барабаны Скрыть...
Популярные аккорды Agent Orange:
алфавиту | просмотрам | случайно
  • INTRO:
    e|------------------------------------------------------------------------|
    B|------------------------------------------------------------------------|
    G|-3--3--3---3-3--2-2-2-(2--2-2-2)--7-7-7-7--7-7-7-7--7-7-7-7--7-7-7-7----|
    D|-3--3--3---3-3--2-2-2--0--0-0-0---7-7-7-7--7-7-7-7--7-7-7-7--7-7-7-7----|
    A|-1--1--1---1-1--0-0-0--0--0-0-0---5-5-5-5--5-5-5-5--5-5-5-5--5-5-5-5----|
    E|------------------------------------------------------------------------|
    
    e|------------------------------------------------------------------------|
    B|------------------------------------------------------------------------|
    G|--------------------------------------------------7----7---7------------|
    D|---7---7---7---7----7---7---7---7-----7---7---7-7-7--7-7-7-7-7-7---7----|
    A|-5---5---5---5----5---5---5---5-----5---5---5---5(5)-5(5)5(5)5---5------|
    E|------------------------------------------------------------------------|…
  • Intro
    
    |------------------------------------------------------------------
    |------------------------------------------------------------------
    |----4-6-4-6^-4-6-6p4----------4-3-3---------3---4-3---4-3---4-3---
    |-6-------------------h6p4-----------4-4---4---6-----6-----6-----6-
    |-6------------------------h6------------6-------------------------
    |-4----------------------------------------------------------------
    
    
    Verse
    
    |---------------------------------
    |---------------------------------
    |---------------------------------
    |-6----6-6-6-6-4-2----2-2-2-2-4-6-
    |-6----6-6-6-6-4-2----2-2-2-2-4-6-
    |-4----4-4-4-4-2-0----0-0-0-0-2-4-
    
    
    Chorus…
  • Intro
    |-------------------------------------------------------------------
    |-------------------------------------------------------------------
    |-------------------------------------------------------------------
    |-------------------------------------------------------------------
    |---------------------------8-8-7-7-----8-8-5-5-7-7-----------------
    |-5-5-7-7-8-8-7-7-10-10-8-8---------5-5-------------5-5-8-8-7-7-8-8-
    
    ok,…
  • It's in the key of A major.
     A A A C  G F A  C G F E G A
    -5-5-5-8--3-1-5--8-3-1-0-3-5-|
    -5-5-5-8--3-1-5--8-3-1-0-3-5-|
    -6-6-6-9--4-2-6--9-4-2-1-3-6-|
    -7-7-7-10-5-3-7-10-5-3-2-4-7-|
    -7-7-7-10-5-3-7-10-5-3-2-4-7-|
    -5-5-5-8--3-1-5--8-3-1-0-3-5-|
    
    That's…
  • Tuning: Standard
    
    Intro
        A Penatonic minor Scale (3 Times)
    e|---------------------|
    B|---------------------|
    G|---------------------|
    D|---7-7-5-5-----------|
    A|-----------7-5-------|
    E|---------------8-5---|
    
    Guitar…
  • Doublepick all guitar passages unless otherwise indicated
    
    E|---------|---------|---------|
    B|---------|---------|---------|
    G|---------|---------|---------|
    D|---------|---------|---------|
    A|---------|---------|---------|
    E|-#-#-7s0-|-0-0-0-0-|-0-0-0-0-|…
  • Opening:
    
    E: 1-------10-----------5----7---8-------7-----|
    A: 3-------12-----------7----9---10-----9------|
    D: 3-------12-----------7----9---10-----9------|
    G: --------------------------------------------|
    B: --------------------------------------------|
    E:…
  • Intro: 
    e|------------------| 
    B|------------------| 
    G|------------------| 
    D|-4-4-4-4-4-42-5--| 
    A|-4-4-4-4-4-42-5--| 
    E|-2-2-2-2-2-2�-3--| 
    pm_________/ 
    
    Verse: 
    e|---------------------------------------------------------------------|…
  • intro 
    e|------------------------------------------------------------------------| 
    B|------------------------------------------------------------------------| 
    G|------------------------------------------------------------------------|…
  • Intro
    |------------------
    |------------------
    |-9~-----9~-----9~-
    |-9~-----9~-----9~-
    |-7~-----7~-----7~-
    |------------------
    
    Main Riff
    |--------------
    |--------------
    |--------------
    |-9-9-9--7-7-7-
    |-7-7-7--5-5-5-
    |--------------
    repeat…
Наверх