Аккорды «Air»

Air
Air — французский дуэт, основанный в 1995, музыку которого относят к жанру электронной музыки, в частности к стилю чил-аут. Франция, Париж. Музыканты Николя Годен и Жан-Бенуа Дюнкель познакомились во время учебы в Версальском университете, где первый изучал архитектуру, а второй готовился стать преподавателем математики. Если бы их образовательные намерения осуществились, этот мир был бы чуть менее прекрасным — ведь в нем не звучала бы музыка дуэта Air, трогательная, романтичная… Применяя аналоговые… Читать полностью... Air — французский дуэт, основанный в 1995, музыку которого относят к жанру электронной музыки, в частности к стилю чил-аут. Франция, Париж. Музыканты Николя Годен и Жан-Бенуа Дюнкель познакомились во время учебы в Версальском университете, где первый изучал архитектуру, а второй готовился стать преподавателем математики. Если бы их образовательные намерения осуществились, этот мир был бы чуть менее прекрасным — ведь в нем не звучала бы музыка дуэта Air, трогательная, романтичная… Применяя аналоговые синтезаторы и «живые» инструменты, Air создают неповторимый «теплый» саунд, в котором изысканные мелодические линии переплетаются с богатыми аранжировками. В записях дуэта нередко участвуют приглашенные музыканты (да и сами Air писали ремиксы на композиции Depeche Mode, Дэвида Боуи, Бека и др.). В творческой копилке Николя и Жана-Бенуа полновесный саундтрек к фильму Софии Копполы «Девственницы-самоубийцы» (Air неизменно появляются на звуковых дорожках всех ее картин), а также активное участие в работе над диском «5:55» Шарлотты Гензбур. В 2006 году Жан-Бенуа Дюнкель под псевдонимом Darkel выпустил сольный альбом. 29 апреля 2007 г. Air исполнят материал с альбома Pocket Symphony на калифорнийском фестивале Coachella… Состав: Николя Годен (Nicholas Godin) — вокал, гитары, синтезаторы и иные студийные инструменты; Жан-Бенуа Дюнкель (Jean-Benoit Dunckel) — вокал, гитары, синтезаторы и иные студийные инструменты. Дискография + - EP и совместные записи + - Premiers Symptomes EP (1998) + - Everybody Hertz (2002) + - City Reading (Tre Storie Western) (совместно с Alessandro Baricco, 2003) + - Late Night Tales: Air (2006, Azuli Records) + - + - Альбомы + - Moon Safari (1998) + - The Virgin Suicides OST (2000) + - 10,000 Hz Legend (2001) + - Talkie Walkie (2004) + - Pocket Symphony (2007) + - Love 2 (2009) + Скрыть...
Популярные аккорды Air:
алфавиту | просмотрам | случайно
  • Intro/Verse
    
       G  G# F  A  D# C  C# D
    e------------------------------------------------|
    B------------------------------------------------|
    G--------------8--5--6--7------------------------|
    D--5--6--3--7--8--5--6--7------------------------|
    A--5--6--3--7--6--3--4--5------------------------|
    E--3--4--1--5------------------------------------|
    
    Pre…
  • Cm7 F (x4)
    
    Eb    G           Cm    Ab             G        Cm7     F
    I'm a high school lover, and you're my favorite flavor.
    Ab      F    Ab     F
    Love is all, all my soul.
    Ab         G          Cm       
    You're my Playground…
  • Standard Tuning
    
    Riff 1
    
    G:--------------------------------------------------------
    D:------------5h7-----------5h7-5h7---5--7---5-5--8-7-57--
    A:--77--7--7-----55--035-5-----------7--7---7-------------
    E:--------------------------------------------------------
    
    
    Bridge…
  • Intro (Standard chords with occasional extra bits)
    
    Csus2 | Gm | 
    A#sus2 | Csus2
    e------3----------3-------------3----------3---------1--------------3-----
    b-----------3-------------------------------------------------------------
    g--5----------5-----5---------------3-----------3------3------5-------5---
    D----5----------5-----------5---------5-----------3-------------5---------
    A---------------------3-------5---------5----------------1--------3-----3-
    E-------------------------------------------------------------------------
    
    Gm…
  • Intro
    
    G:-------------------------------    G:--------------------------------
    D:-------------------------------    D:--------------------------------
    A:------------------------------- or A:--7--7-5--7-7/107--7--7-5�--
    E:-------------------------------…
  • Main Part (Chorus if you want)
    G|-----7-------5--7-----7-----5--7-----7-----5--7----7------5--7--|
    D|----------------------------------------------------------------|
    A|--5-----5-5--------5----5-5-------3----3-3------3-----3-3-------|
    E|----------------------------------------------------------------|
    
    G|-----7-------5--7-----7-----5--7----10------9-10----10-----9-10-|
    D|----------------------------------------------------------------|
    A|--5-----5-5--------5----5-5-------8----0-8-8------8---0-8-8-----|
    E|----------------------------------------------------------------|…
  • Little E thing he plays durring transistions:
    
    E-------------
    B-------------
    G-------------
    D-------0--2--
    A--0-h2-------
    E-------------
    
    
    (Strum first verse carefully)
    
    Bm 	F#m  Bm 	
    Golden waves 
    	F#m      Bm
    In all directions…
  • Main riff:
    G ----------------------------
    D -----997-7h9---------------
    A --7h9---9---9975h775h77-
    E 77--------------------------
    
    There are variations on this,
    then it slows down:
    
    G -----------
    D -----------
    A ---9--7--5-
    E…
  • e-12(50x)-9~-------------------------------------------
    b------------------------------------------------------
    g------------------------------------------------------
    d-------------------7777--777-555-2--222---------------
    a-------------------7777--777-555-2--222--(5x)---------
    e-------------------5555--555-333-0--000---------------
    
    
    e-------------------------------------------
    b-------------------------------------------
    g---------999--9-----------777--7-----------
    d---------999--99-999999---777--77-777777---
    a---------777--79-999999---555--57-777777---
    e---------------7-777777---------5-555555---
    
    
    e--------------------------------------------------
    b--------------------------------------------------
    g---------999--9-----------777--7------------------
    d---------999--99-999999---777--72-222222-2-222222-
    a---------777--79-999999---555--52-222222-2-222222-
    e---------------7-777777---------0-000000-0-000000-
    
    e-5b7
    b----
    g----
    d----
    a----
    e----…
  • Standard tuning.
    
    -------------------------------------------------------|
    --12-10-12-14-10------12-10-12-14----------------------|
    -----------------11---------------13-11----------------|
    -------------------------------------------------------|
    -------------------------------------------------------|
    -------------------------------------------------------|
    
    -------------------------------------------------------|
    --12-10-12--14---12-10-12--14---12-10-12-14~-----------|
    ---------------------------------------------11--------|
    -------------------------------------------------------|
    -------------------------------------------------------|
    -------------------------------------------------------|…
Наверх