Аккорды «Alexisonfire»

Alexisonfire
Alexisonfire (произносится как Alexis-on-fire) — музыкальная группа, образованная в городе Сент-Катаринс, Канада в 2001 году. В состав группы входят Джордж Петтит, Даллас Грин, Уэйд МакНил, Крис Стил и Джордан Гастингс. 5 августа 2011 года коллектив объявил о прекращении совместной деятельности. Сами музыканты описывают свою музыку как «звуки, издаваемые двумя ученицами католической школы, дерущимися на ножах» (ссылаясь на свою песню «A Dagger Through the Heart of St. Angeles», которая также вдохновила… Читать полностью... Alexisonfire (произносится как Alexis-on-fire) — музыкальная группа, образованная в городе Сент-Катаринс, Канада в 2001 году. В состав группы входят Джордж Петтит, Даллас Грин, Уэйд МакНил, Крис Стил и Джордан Гастингс. 5 августа 2011 года коллектив объявил о прекращении совместной деятельности. Сами музыканты описывают свою музыку как «звуки, издаваемые двумя ученицами католической школы, дерущимися на ножах» (ссылаясь на свою песню «A Dagger Through the Heart of St. Angeles», которая также вдохновила их на дизайн обложки дебютного альбома). Группа выпустила три очень успешных альбома: дебютная пластинка «Alexisonfire» (2002) получила в Канаде статус золотой, а «Watch Out!» (2004) и «Crisis» (2006) — статусы платиновых альбомов. Тур в поддержку последней пластинки продолжался до декабря 2007 года, после чего группа взяла небольшой перерыв, после которого приступила к записи своего очередного альбома «Old Crows / Young Cardinals» (2009). Alexisonfire сформировались в конце 2001 года в результате распада трёх музыкальных коллективов. Петтит играл на бас-гитаре в группе Condemning Salemn, Грин был основным вокалистом и гитаристом в Helicon Blue, а МакНил и Стил играли в поп-панк группе под названием Plan 9. Собравшись вместе, музыканты основали Alexisonfire, пригласив в группу барабанщика — Джесси Ингелевикса. Группа выпустила свой первый EP «Math Sheet Demos» в 2002 году. EP получил такое название в связи с тем, что компакт-диск с демозаписями Джесси завернул в свою домашнюю работу по математике. В этом же году на группу обратили внимание работник звукозаписывающей студии Грег Белоу и журналист из Монреаля Митч Джоуэл — основатели лейбла «Distort Entertainment». Белоу сотрудничал в то время с компанией «EMI», благодаря чему ему удалось заключить контракт с группой, записав с ней несколько песен. 9 сентября 2002 года в свет вышел альбом «Alexisonfire». Сама группа устроила тур в поддержку диска, дважды объехав Канаду и выступив в США и Европе. Коллектив поиграл на одной сцене с такими именитыми коллегами как Billy Talent, Godsmack, Glassjaw, Deftones. В 2011 году группа распадается потому, что Даллас Грин решил больше уделять внимание своему сайд-проекту City and Colour. В объявлении, появившемся на официальном сайте группы, вокалист ALEXISONFIRE Джордж Петтит объясняет, что группа сыграла свой последний концерт с гитаристом/вокалистом Далласом Грином 19-го декабря 2010-го: «Год назад Даллас сказал нам, что хочет уйти после тура в поддержку альбома “Old Crows/Young Cardinals”. Попытка найти баланс между гастролями с нами и CITY AND COLOUR была неудачной и он сказал, что хочет сосредоточить свои усилия на CITY AND COLOUR». George добавил, что оставшиеся участники ALEXISONFIRE хотели продолжать, но «череда личных проблем утягивала всё дальше и дальше от группы». Наконец, когда гитарист Уэйд Макнил решил уйти, чтобы сосредоточиться на другом проекте, хардкор панк-группе Gallows, оставшиеся музыканты — вокалист Петтит, барабанщик Джордан Гастингс и басист Крис Стил — почувствовали, что лучше разойтись, пока всё не “стало старым и безобразным”. «Замена одного гитариста была возможна, но замена двух грозила извращением того наследия, которого мы достигли - пояснил Джордж. Мы решили закончить всё это, пока всё не стало старым и безобразным. Был ли распад мирным? Не совсем. Был ли он действительно необходим? Возможно. Участники группы — моя семья, и я не желаю им ничего, кроме удачи». Состав: Джордж Петтит (George Pettit) — вокал (2001—2011) Даллас Грин (Dallas Green) — гитара, вокал (2001—2011) Уэйд МакНил (Wade MacNeil) — гитара, вокал (2001—2011) Крис Стил (Chris Steele) — бас-гитара (2001—2011) Джордан Гастингс (Jordan Hastings) — ударные (2005—2011) Бывшие участники: Джесси Ингелевикс (Jesse Ingelevics) — ударные (2001—2005) Дискография: Студийные альбомы: 2002 — Alexisonfire 2004 — Watch Out! 2006 — Crisis 2009 — Old Crows / Young Cardinals EPs: 2010 — Dog’s Blood 2012 — Death Letter Сплиты: 2005 — The Switcheroo Series: Alexisonfire vs. Moneen 2006 — The Bled / Alexisonfire Демо: 2002 — Math Sheet Demos 2002 — Pink Heart Skull Sampler 2004 — Brown Heart Skull Sampler Синглы: 2005 — No Transitory / Accidents 2006 — This Could Be Anwhere in the World 2006 — Boiled Frogs 2007 — Drunks, Lovers, Sinners and Saints 2009 — Young Cardinals 2009 — No Rest 2011 — The Dead Heart Скрыть...
Популярные аккорды Alexisonfire:
алфавиту | просмотрам | случайно
  • -----------------------------------
       -----------------------------------
       ---8------11------10---------------
       ---8------11------10-----11--------
       ---6------9-------8------11--------
       -------------------------9---------…
  • Intro: 
    *-----------------------------------------------------------------*
    *-----------------------------------------------------------------*
    *-----------------------------------------------------------------*
    *---3-3-6-6--10--------3-3-10--11-11-10-11p10---------------------*
    *------------------4-4--------------------------------------------*
    *-----------------------------------------------------------------*
    *…
  • Tuning: Dropped D
    
    (figure out the rhythm yourself, t'is easy!)
    e|--------------------------------------------------------------------------|
    B|--------------------------------------------------------------------------|
    G|-8-8-8-8-6-6/11-11-11-11/10-10-10-10/15-15-15-15-1513/15-15-15-15-15-15--|
    D|--------------------------------------------------------------------------|
    A|-6-6-6-6-6-6/-9-9--9--9/-8--8--8-8/--13-13-13-13-1311/13-13-13-13-13-13--|
    D|--------------------------------------------------------------------------|
    
    e|--------------------------------------------------------------------------|
    B|-----------------14-14-14-------------------------------------------------|
    G|---11-11-11---------------------------------------------------------------|
    D|-----------------11-11-11-------------------------------------------------|
    A|---9--9--9----------------------------------------------------------------|
    D|--------------------------------------------------------------------------|
    
    e|--------------------------------------------------------------------------|
    B|---11-11-11-11-11---------------------------------------------------------|
    G|---9--9--9--9--9------------10/116---------------10/116-----------------|
    D|---9--9--9--9--9---1111-------------------1111----------------------------|
    A|---9--9--9--9--9---1111------8/94--------1111-----8/94------------------|
    D|---9--9--9--9--9---1111-------------------1111----------------------------|
    
    e|--------------------------------|
    B|--------------------------------|
    G|--------------------------------|
    D|----99-9-99-----10h13-----------|…
  • Intro
      Gtr III
    |-----------------------|-----------------|
    |-----------------------|-----------------|
    |-----------------------|-----------------|
    |-----2-----2-(2)-(2)---|-----7-------7---|
    |---3---3---3-(3)-(3)---|---7---7---7---7-|
    |-1-------1-1-(1)-(1)-1s|=5-------5-------|
    |
    |…
  • GUITAR : RHYTHM GUITAR (WADE)
      TUNING (HIGHEST TO LOWEST) : D#,A#,F#,C#,G#,D#
      SYMBOLS : *=PALM MUTE, x=MUTE, /=SLIDE OFF
    
    
    
      INTRO
      |---------------------------|     |-----------------|
      |---------------------------|…
  • Guitar 1 = LEFT
    Guitar 2 = RIGHT
    
    Tuning: D# G# C# F# A# d#
    
    INTRO
    
    Guitar 1
    
    Figure [1] at 0:00 to 1:07 (Played 34x)
    
    d# |-------------------|
    a# |-------------------|
    f# |--------------16---|
    c# |-----17---/14------|
    g#…
  • Intro Part One
    |----------------------------------------------|
    |----------------------------------------------|
    |-4-/-6-4--2-/-4-------------9-/-14-13-9-/-11-|
    |-x-/-x-x--x-/-x-4~-0~-4~-0~-x-/-x--x--x-/-x--|
    |-2-/-4-2--0-/-2-4~-0~-4~-0~-7-/-12-11-7-/-9--|
    |-----------------4~-0~-4~-0~------------------|
    
    Intro…
  • Gtr I (Eb Ab Db Gb Bb Eb) - Wade
    Gtr II (Eb Ab Db Gb Bb Eb) - Dallas
    Gtr III (Eb Ab Db Gb Bb Eb) - Wade
    Gtr IV (Eb Ab Db Gb Bb Eb) - Dallas
    
    
     Intro A
    
      Gtr I
    |-------------------|-------------------|
    |-0-0--3-0-2-0--3-0-|-5-0--3-0--2-0-3-0-|
    |-------------------|-------------------|
    |-------------------|-------------------|
    |-------------------|-------------------|
    |-------------------|-------------------|
    |
    |…
  • Intro
    e-----------------------------------------------------|
    B-----------------------------------------------------|
    G-6-6-xxxxxxxx-6-6-xxxxxxxx-2-2-xxxxxxxx-2-2-xxxxxxxx-|
    D-6-6-xxxxxxxx-6-6-xxxxxxxx-2-2-xxxxxxxx-2-2-xxxxxxxx-|
    A-4-4-xxxxxxxx-4-4-xxxxxxxx-0-0-xxxxxxxx-0-0-xxxxxxxx-|
    E-----------------------------------------------------|
    
    e--------------------------------------------------------------------|
    B--------------------------9~~~------------------------------12-9~~~-|
    G----------------9-11p98---------------------------9-11p98---------|
    D-----------9-11-------------------------------9-11------------------|
    A----7-9/11-----------------------------7-9/11-----------------------|
    E-/9---------------------------------/9------------------------------|
    
    Verse
    e-----------------------------------------------------------|
    B---------------------------109-109-109-109-109-109-109-109-|
    G-6-6-xxxxxxxx-6-6-xxxxxxxx-9-9-9-9-9-9-9-9-9-9-9-9-9-9-9-9-|
    D-6-6-xxxxxxxx-6-6-xxxxxxxx-7-7-7-7-7-7-7-7-7-7-7-7-7-7-7-7-|
    A-4-4-xxxxxxxx-4-4-xxxxxxxx-0-0-0-0-0-0-0-0-0-0-0-0-0-0-0-0-|
    E-----------------------------------------------------------|
    
    Chorus…
  • Gtr I (Eb Ab Db Gb Bb Eb) - Dallas
    Gtr II (Eb Ab Db Gb Bb Eb) - Wade
    Gtr III (Eb Ab Db Gb Bb Eb) - Clean
    Gtr IV (Eb Ab Db Gb Bb Eb) - Scraaaaaape
    
    
       Interlude
    
        Gtr III
    ||-----------7-----|-(7)---(7)--|-----------------|----------------||
    ||o----------------|------------|---------8-------|--(8)----(8)---o||
    ||------5----------|------------|-----------------|----------------||
    ||--5S7---7-(7)----|-(7)---(7)--|---10--(10)------|-(10)---(10)----||
    ||o----------------|------------|-8-(8)--(8)------|--(8)----(8)---o||
    ||-----------------|------------|-----------------|----------------||…
  • Gtr I Db Ab Db Gb Bb Eb - Dallas
    Gtr II Eb Ab Db Gb Bb Eb - Wade
    Gtr III Eb Ab Db Gb Bb Eb - Clean
    Gtr IV Eb Ab Db Gb Bb Eb - Piano
    
    
     Intro
                                 Dadd11/G          N.C.
    
      Gtr I
    |---------|---------------|----------|----------------|
    |---------|---------------|-7--------|-(7)------------|
    |---------|------------|-7--------|-(7)----12-11---|
    |---------|------------|-5--------|-(5)------------|
    |---------|---------------|-5--------|-(5)------------|
    |---------|---------------|-5--------|-(5)------------|
    |
    |…
  • Intro
            Bsus2          (Bsus2)
            Gtr I
    |-----|-^-9--------||-------9----9------9------9--------9---|
    |-----|-^12--------||o-----12---12-----12-----12-------12---|
    |-----|-^11--------||------11---11-----11-----11-------11---|
    |-----|-^-9--------||--9-9----9----9-9----9-9----9-9-9----9-|
    |-----|------------||o--------------------------------------|
    |-----|------------||---------------------------------------|
    |
    |…
Наверх