Аккорды «Alice in Chains»

Alice in Chains
Пожалуй, никто не смог бы найти лучшее определение плодам творчества Alice In Chains, чем ударник группы Шон Кинни: "Мы сумели овладеть мастерством создавать нечто красивое, но вызывающее у слушателя желание умереть..." Задатки музыкальных способностей у фронтмена группы Лейна Стейли (род. 22.08.67, Киркленд - умер 05.04.02, Сиэттл) зарождались еще в раннем возрасте. Двенадцатилетний Лейн уже играл на барабанах (!) в различных гаражных глэм-группах. К ударной установке его влекло с… Читать полностью... Пожалуй, никто не смог бы найти лучшее определение плодам творчества Alice In Chains, чем ударник группы Шон Кинни: "Мы сумели овладеть мастерством создавать нечто красивое, но вызывающее у слушателя желание умереть..." Задатки музыкальных способностей у фронтмена группы Лейна Стейли (род. 22.08.67, Киркленд - умер 05.04.02, Сиэттл) зарождались еще в раннем возрасте. Двенадцатилетний Лейн уже играл на барабанах (!) в различных гаражных глэм-группах. К ударной установке его влекло с тех пор, как он впервые увидел ее у одного из друзей своего отца. Но однажды на репетиции он попытался петь - ему казалось, что у него это получалось лучше, чем у вокалиста группы, в которой он играл. Но ему сказали: "Парень, ты сидишь за установкой - вот и стучи." Это, конечно, задело самолюбие юного Стейли (ему было 15). Сгоряча он продает свои барабаны и покупает микрофон и "задержку" ("delay" - это такая "примочка"... Надеюсь, уж это слово-то вам знакомо). Начал Лейн с того, что подключил микрофон к проигрывателю и пел вместе с пластинками Black Sabbath, Ozzy Ozbourne и т.п. Джерри Кэнтрелл (род. 18.03.1966, Такома) познакомился со своим отцом, лишь когда научился говорить первые слова - папа вернулся из Вьетнама. Его мать Глория Джин Кэнтрелл была первым человеком, приведшим Джерри в музыку - она играла на фортепиано. Но, к сожалению, она не дожила всего несколько лет и так и не увидела славы сына. Впервые Джерри взял в руки гитару в шестом классе, но все последующие годы почти не занимался ею. Серьезное же занятие гитарой пришло, когда ему было 17. Он играет во всевозможных гаражных группах, в одной из которых и познакомился с Майком Старром (Mike Starr) (род. 04.04.1966, Гонолулу - умер 08.03.11, Солт Лейк Сити). В 1987 году Джерри и Лейн, наконец, сошлись на какой то вечеринке. Познакомились поближе и, как водится, создали группу. В первый состав тогда уже группы Alice In Chains (первоначальная идея была назвать группу "Fuck", но Стэйли предложил другую версию – "Alice in chains", как бы в пародию на "металлистов", всегда увешанных какими-то цепями) вошел бас-гитарист Майк Старр, а за ударные сел Шон Кинни (род. 27.05.1966), в то время встречавшийся с сестрой Майка. Шон уже играл на барабанах, когда ему было всего три года, и его деду приходилось подсаживать внука на барабанный пьедестал. Двумя годами позднее у Шона уже была своя установка. Когда ему исполнилось девять, он стал членом группы своего деда The Cross Cats, которая играла кантри, джазовые стандарты, свинг... Одним словом, у Шона была хорошая школа. Главные отличительные черты Шона - необузданное чувство юмора и глубокое убеждение, что он является, пожалуй, единственным музыкантом, не считая Майкла Джексона, у которого есть обезьяна. Первый концерт группы Alice In Chains состоялся 5 августа 1987. Потом группа сыграла пару концертов под названием Diamond Lie. Настоящей же стартовой точкой в карьере Alice In Chains следует считать 11 февраля 1989 года - концерт на центральной площадке Сиэтла вместе с Mother Love Bone. В этом же году группе удается заключить контракт с Columbia Records. В июне 1990 года AIС выпустили небольшим тиражом свой первый ЕР "We Die Young", a двумя месяцами позже - первый полноформатный альбом "Facelift". Альбом получился тяжелым, но в звучании присутствовал сильный глэмовый оттенок 80-х годов. Вскоре после выпуска песня "We Die Young" заняла первые позиции в метал-чартах. Сам же альбом стал золотым и попал в чарты "Billboard" лишь спустя девять месяцев. Сразу после записи альбома группа отправилась в свой первый тур по Соединенным Штатам. 22 декабря режиссер Josh Taft запечатлил аншлаг в Moore Theater в Сиэтле и выпустил на видео "Live Facelift". В январе 1991 года AIС впервые выставлялись на "American Music Awards" в номинации "Favorite Heavy Metal Artist", но проиграли. Первый сингл "Man In The Box" получил небольшую долю "раскрутки" на радио и MTV. В начале 1991 году выходит фильм "Singles" (реж. Cameron Сгоwе), в котором AIC исполнили свою новую песню "Would?". В то же время начался первый европейский тур группы вместе с Megadeth, во время которого AIС были представлены к "Grammy" в номинации "Best Heavy Metal Performance", но снова проиграли. В апреле тур закончился, и у группы был месяц на отдых - набраться сил для того, чтобы каждую ночь в течение двух следующих месяцев играть для толпы фанатов группы Slayer в туре "Clash Of The Titans". "После того, как мы это выдержали, нам казалось, что уже ничто не страшно", - говорил Лейн в одном из интервью. Тур "Clash Of the Titans" закончился в середине июля и плавно перешел в четырехмесячный тур с группой Van Halen. Во время этого тура Шону Кинни приснился странный сон: будто бы он говорит благодарственную речь на церемонии вручения "Grammy", который группа получила за ЕР под названием "SAP". Группа решила не шутить с судьбой и записала ЕР сразу по возвращении из тура на перерыв, назвав ЕР "SAР" (что бы это ни значило). После записи Джерри Кэнтрелл отправился со своим братом на охоту и пропустил концерт с Van Halen, запланированный на 1 декабря, - просто бедняга думал, что в ноябре 31 день. Columbia подарили ему на Рождество календарик и любезно попросили его больше так не делать. Весну 1992 года AIC посвятили записи нового альбома, который вышел в сентябре под названием "Dirt". На альбоме присутствовало много откровенных текстов, включая песню "Rooster", в которой описывались годы войны во Вьетнаме, проведенные там отцом Кантрелла. Однако, внимание критиков было сосредоточено на ряде песен, касавшихся прошлых проблем Стэйли с героином: начиная от откровенно наркоманской "Junkhead" ("Мы - элитная раса самих себя / "колесники", колющиеся и нюхающие"), до призывающей покончить с наркозависимостью "Angry Chair" ("Маленький мальчик совершил ошибку / И розовое облако теперь станет серым"). Несмотря на свою противоречивость, "Dirt" был по достоинству оценен публикой, явившись самым обсуждаемым во многих металлических журналах альбомом года. В штатовских хит-парадах он занял шестую позицию. Этот альбом стал для группы настоящим прорывом: раскуплено несколько миллионов экземпляров, к декабрю 1993 года "Dirt" уже обрел статус дважды платинового, а главное - в нем представлены песни, наиболее любимые публикой и по сей день ("Would?", "Rooster", "Them Bones", "Down In A Hole"). Это также первая запись группы, сделанная не в Сиэтле, а в Лос-Анджелесе, на студиях Eldorado и One On One, где двумя годами ранее Metallica записывала свой "Metallica". Песня "Would?" стала национальным хитом, группа исполняла ее в фильме "Singles". В июне 1993 года Лейн каким-то невообразимым способом умудрился попасть под четырехколесный мотоцикл, за рулем которого сам же и сидел (?!). Одним словом, невзирая на перелом ноги, Стейли закончил тур с Оззи Осборном - на костылях или в инвалидной коляске, - не пропустив ни одной даты. Кое-кому на этой неприятности даже удалось подняться, продавая майки о изображением рентгена сломанной ноги Лейна. В январе 1993 года AIC сыграли на фестивале "Hollywood Festival" в Рио-де-Жанейро (Бразилия). Это выступление оказалось последним для бас-гитариста группы Майка Cтарра, просто не выдержавшего такого количества гастролей. На последовавших концертах AIС в Европе его заменил бас-гитарист Оззи - Mike Inez (род. 14.05.1966), которой впоследствии и остался в группе. В детстве первым инструментом Майка была гитара, но позже он взялся за бас, так как какой-то группе нужен был бас-гитарист (как это было со многими бас-гитаристами). Кроме того, он получил музыкальное образование по классам саксофона и фортепиано. Все лето 1993 года было отдано фестивалю "Lollapalooza" - 36 концертов за 50 дней. Вернувшись из тура, группа обнаружила, что ее выселили из резиденции - оказывается, за концертами никто не вспомнил, про квартплату. В итоге группа переселилась в London Bridge Studios. За отсутствием иных занятий группа принялась за запись третьего по счету ЕР "Jar Of Flies". Затем тур в поддержку нового сингла "Down In A Hole". В сентябре 1993 году выходит саундтрек к фильму Арнольда Шварценеггера "Last Action Него", на котором представлены две новые песни AIC "A Little Bitter" и "What The Hell Have I?". Всего за месяц саундтрек достиг платинового статуса. 18 января 1994 году новый ЕР "Jar Of Flies" был выпущен в пачке с ЕР "SAР", а 25 января - как самостоятельная работа. "Jar Of Flies" стал первым в истории ЕР, дебютировавшим на первом месте в чартах "Billboard". В марте 1995 года AIС снова выставлялись на "Grammy" с песней "I Stay Awау" (сингл с ЕР "Jar Of Flies"), но, как всегда, проиграли. В апреле 1995 году AIC закрываются в студии для записи третьего полноформатного альбома. В ноябре альбом выходит в свет под названием "Alice In Chains", дебютирует в "Billboard" на первом месте, выставляется нa "Grammy" и тоже проигрывает. 22 мая 1996 году в США и 22 июня в Европе прошла трансляция видеоверсии акустического концерта AIС "MTV Unplugged". Аудиоверсия, более полная, вышла как альбом 28 июля, и в нее вошла новая песня "Killer Is Me''. Не прошло и двух месяцев, как альбом стал платиновым. Февраль 1997 году - снова "Grammy", номинация "Best Heavy Metal Performance", песня "Again" - и снова удача не на стороне Alice In Chains. Хотелось бы обратить ваше внимание на тот факт, что до концерта на MTV группа не выступала целых три года. Конечно, это привело к появлению слухов о распаде группы. По правде сказать, не хотелось поднимать эту тему, но она всплывает сама собой. В группе действительно были серьезные проблемы со "здоровьем" Лейна Стейли. Если раньше Лейн писал песни о своих "бывших" проблемах с наркотиками, то теперь эти проблемы снова стали ужасной реальностью. Альбом "Alice In Chains" записывался с трудом. Лейна невозможно было заставить работать. На обложке альбома изображена трехногая собака, по официальной версии - в память собаки детства Шона (рабочее название альбома было "Tripod" - кличка собаки). На мой же взгляд, это метафорический символ "хромой" группы, группы без солиста. Слухи о распаде группы разрослись еще больше, когда Джерри Кэнтрелл выпустил свой сольный альбом "Boggy Depot" в 1998 году. Иронично то, что в записи "сольного" альбома Джерри принимали участие и Майк, и Шон, и даже Тоби (Toby Wright, продюсер AIС). То есть фактически это значило исключение Лейна. В 1999 году AIС выпустили своего рода напоминание о себе: компиляционный альбом "Nothing Safe - The Best Of The Box", являющийся не более чем сэмплером двухдискового Воx-Set, вышедшего буквально через месяц. Компиляция, подобранная неплохо, да еще и две новые песни в нагрузку ждут своего слушателя, чтобы показать ему, что есть такая группа. А в апреле 2002 года все были шокированы, прочитав в газетах, что "солист культовой американской группы Alice in Chains 34-летний Лэйн Стейли найдем мертвым в своей квартире в Сиэтле. Стейли скончался несколько дней назад. Все это время его тело пролежало в квартире и уже начало разлагаться". Полиция предполагает, что смерть наступила в результате передозировки, поскольку Лейн Стейли несколько лет страдал героиновой зависимостью. Так в интервью журналу Rolling Stone лидер Alice in Chains говорил: "Я писал о наркотиках и не думаю, что поступал опасно и беспечно. Вот как работала модель моего мышления: когда я пробовал наркотики, они были прекрасны, и они работали на меня годами, а сейчас они обернулись против меня - я иду сквозь ад". Согласно официальному заключению, причиной смерти стала передозировка смеси героина и кокаина. По мнению экспертов, смерть наступила за две недели до обнаружения тела - 5 апреля, что делает этот день поистине зловещим для поклонников гранжа. Ведь именно в этот день в 1994 году не стало и лидера Nirvana Курта Кобейна. Более точная формулировка причины смерти Лейна Стейли звучит как "сильная интоксикация, наступившая в результате комбинированного эффекта действия героина и кокаина". В наркокругах эта смертельная смесь носит название "speedball". Ее жертвами ранее стали комик Джон Белуши (в 1982 году) и актер Ривер Феникс (в 1993). В воскресенье, 21 апреля, оставшиеся члены Alice In Chains сделали официальное заявление по поводу трагедии, в котором, в частности, говорится: "Сегодня мы чувствуем только сердечную боль, вызванную утратой друга. Он был отличным парнем с тонким чувством юмора и любовью к своим ближним. Он был восхитительным музыкантом, вдохновением и утешением для столь многих. Он сочинял великую музыку и дарил ее всему миру. Мы гордимся тем, что могли называть его своим другом, тем, что были рядом с ним. Последнее десятилетие Лейн изо всех сил боролся со своим пристрастием - теперь мы можем только надеяться, что он, наконец-то, обрел покой. Мы нежно любим тебя, Лейн. И нам всегда будет тебя не хватать". 8-го марта 2011го года умер Майк Старр (Michael Christopher "Mike" Starr (April 4, 1966 – March 8, 2011) , экс-бассист Alice In Chains (1987-1993) от передозировки аптечными препаратами. На его похоронах было приблизительно 400 человек, включая Шона Кинни и Джерри Кэнтрэлла. Скрыть...
Популярные аккорды Alice in Chains:
алфавиту | просмотрам | случайно
  • Tuning: Eb, Ab, Db, Gb
     
    Verse
    				 x?
    |~~~~~~~~~~~~~~~~~~~~~~~~~~~~~~~~~|
    		x3			 		
    |--------------|------------------|---------------|
    |*------------*|------------------|---------------|
    |*------------*|----------------5-|-----5---5-7---|
    |---0-----0-0--|---0-----0-0-5h7--|---0---0-------|
    
    
    Pre-Chorus…
  • If you don't feel like tuning down, just play everything 1 fret lower
    
    EXAMPLE: Heres the first line tuned down to the Alice in Chains liking
    Gb|---------|------------------|7-5------------------|------------------|
    Db|---------|--------------7-5~|----7-5----------7-5~|--------------7-5~|
    Ab|---------|3333-5-7~-7-5-----|--------5-7~-7-5-----|3333-5-7~-7-5-----|
    Eb|---------|------------------|---------------------|------------------|…
  • D#-----------------|
    A#-----------------|
    F#-----------------|
    C#-----------------|
    G#-----------------|
    D#-----------------|
    
    
                                                                             
    ------------------------------------------------|
    ------------------------------------------------|
    --4h6------4h6----4--4-----------|--4h6------4h6----4--4----|
    --4--------4------4--5-----------|--4--------4------4--5----|
    ------------------------------------------------|
    ------------------------------------------------|…
  • Intro: G  D#  F
    
    Yeah     it goes away
    G  D#  F     G   D#  F
    All of this and more of nothing in my life
    G   D#  F           G   D#  F
    No          colored clay
    G   D#  F    G   D#  F
    Individuality not safe
    G   D#  F…
  • D - tuning
    
    Intro:
    e--------0---0-0-0-0--|------0---0-0-0-0-----
    B--------0---0-0-0-0--|------0---0-0-0-0-----
    G---------------------|----------------------
    D----4-4-4---4-4-4-4--|--7-7-7---7-7-7-7-----  (Repeat a couple…
  • D#--------------|
    A#--------------|
    F#--------------|
    C#--------------|
    G#---|-------2-------3b-----|
    D#---|--0-------0-----------|
    
    
                                                                         
    --------------------------------------------|
    --------------------------------------------|
    --------------------------------------------|
    --------------------------------------------|
    -------2-------3b-----|-------2-------3b-----|-------2-------3b-----|
    --0-------0-----------|--0-------0-----------|--0-------0-----------|…
  • Chords
    
             Aadd2:          Badd4:       G6:        E:
     e              0               0         0         0
     B              0               0         0         0
     G              6               8         4…
  • Verse 1:
    
    Gb----------------R---------------
    Db----------------E---------------
    Ab----------------S---------------
    Eb--0--3--5-5--3--T--0--3--5-5--3-  listen to the song, not sure how many times that is played
    
    Verse 2:
    then…
  • e------------------------------
    b------------------------------
    g-2(b)---------------------2---
    d------------------------3-----
    a-----5-4---0--1--0----3-------
    E---------3----------1---------
    
    e------------------------------
    b------------------------------
    g-2(b)--------------------2----
    d--------------------2(b)-0----
    a------5-4---0--1--0-----------
    E----------3-------------------…
  • Tuning: Eb, Ab, Db, Gb
    
    Verse First time through
    
    |-------------|-----------|-------------|-----------|
    |*------------|-----------|-------------|----------*|
    |*------------|-----------|-------------|----------*|
    |--6/3--3--3--|--------3--|--1/3--3--3--|-----------|
    
    |-------------|-----------|-------------|-----------|
    |-------------|-----------|-------------|-----------|
    |-------------|-----------|-------------|-----------|
    |--3/1--1--1--|--------1--|--6/8--8--8--|-----------|
    
    |-------------|-----------|-------------|-----------|
    |-------------|-----------|-------------|-----------|
    |-------------|-----------|-------------|-----------|
    |--6/3--3--3--|--------3--|--1/3--3--3--|-333333333-|
    
    
    Verse…
  • Intro:
    
    	  F5 Dsus2		   D5    D5
    e  |------------0--0--0--0--0--0--0--0--0--0--0--0--0-|	
    B  |------------3--3--3--3--3--3--3--3--3--3--3--3--3-|
    G  |------------2--2--2--2--2--2--2--2--2--2--2--2--2-| x4
    D  |--1--3--0---0--0--0--0--0--0--0--0--0--0--0--0--0-|
    A…
  • Do this twice
    -----------------------------------------------------------------------
    -----------------------------------------------------------------------
    -----9-----------------------------------------------------------------
    ---9---9-----9/-10----9-------9-/12--9------9-/10----10---10---10-----
    -7--------7-(7)/8---7---7--7-(7)/107---7-7-(7)/8---8----8----8----8/7-
    -----------------------------------------------------------------------
    
    Then…
  • intro:
    _____________________________________4__________
    6 4______________________________6 46____________
    ____5 4 2_________2 4 5 4 2____________5 4 2________
    __________402 3 4___________42 3_____________42 3 4 
    
    ____________
    ____________
    2…
  • Em           G                     Am          C
    
    It's been a long day at the bottom of the hill
    She died of a broken heart
    She told me I was livin' in the past
    Drinkin' from a broken glass
    
    I'm alone
    (I never want to be…
  • (drums) 3  Gtr 1            Rhy. Fig. 1
    |---------|----------------|----------------------------------|
    |---------|----------------|----------------------------------|
    |---------|--11-----------|----------------------------------|
    |---------|--11-------11p7|----------------------------------|
    |---------|----------------|----------3-3-3-------3-------3---|
    |---------|----------------|--2-2-2-2-------2-2-2---2-2-2---2-|
    |Gtr.…
  • Tune Bass Down # step (low to high: Eb, Ab, Db, Gb)
    
                                    
                                       (Play 10 times)
    --|---------4--------2------------|--------4-----2--4-0-------0h2|--
    --|0--2--2-----2--0--0------------|0h2--2----2p0-0------0-2h4----|--
    --|-------------------------------|------------------------------|--
    --|-------------------------------|------------------------------|--…
  • Intro: (With Chorusing)
    
    ------------------0------------0---l--------------------12-------------------------------|
    -------------9-------------6-------l----------------9------------------13-----12---------|
    -------10-------------7------------l-----------10-------------/-14------------13---------|
    ---0-------------------------------l-----------------------------------------------------|
    -----------------------------------l-----------------------------------------------------|
    -----------------------------------l-----0-----------------------------------------------|
    Do…
  • pm-----|    pm-----|    pm-----|
    --------------------------------------------------------------
    --------------------------------------------------------------
    --------------------------------------------------------------
    --------------------------------------------------------------
    -------------------------------------11-x-10-x-9v-------------
    -12-12-12-12-13-13-13-13-14-14-14-14--------------12-10-12----…
  • Brother Unplugged
    
    Intro and verse (Rhy. 1)
    
    Eb----0----0---0-0--0---0--0---0--0--0--0----------------------------------------|
    Bb----2----2---2-2--2---2--2---2--2--2--2--3-/-5--3--2---------------------------|
    Gb----0----0---0-0--0---0--0---0--0--0--0--0-/-0--0--0---------------------------|
    Db----2----2---2-2--2---2--2---2--2--2--2--3-/-5--3--2---------------------------|
    Ab----0----0---0-0--0---0--0---0--0--0--0--0-/-0--0--0---------------------------|
    Eb-------------------------------------------------------------------------------|
    
    
    Played…
  • INTRO
    e]-0h2-2-2-0---3------------------------------
    B]-3---3-3-3---3------------------------------
    G]-2---2-2-2---5-----0-----0------------------
    D]---------0-0-----2-----0-------0-----0-----0
    A]---------0-0---3-----2-------2-----0-------0
    E]---------0-0---------------5-----5-----5p4-0
    
    Then…
  • Unplugged
    
    Tuning
    Db - Ab - Db - F - A - Db
    
                                      ----  Main Riff  ---
                                     ( all down picking)
    
    ----4-4- 4-4- 4-4--4-- 4-4--4---4-----0-0----0-0--0-0-0--0-0-- 0--0-----|
    -----4-4…
  • Tuning: Eb, Ab, Db, Gb
    
    This song pretty much has only two parts, verse and chorus.
    
    Verse   x8
    |-----------------------------------|
    |*---------------------------------*|
    |*-2----1----1---------------------*|
    |---------------3---2----1----1--0--|
    
    Chorus…
  • Intro
    e:--------------------------|--------------------------|
    B:--------------------------|--------------------------|
    G:--------4--------4-----4--|-----------4--------4-----|
    D:-----4--------4-----------|--------4-----4--------4--|
    A:--2-----------------0-----|-----2-----------2--------|
    E:-----------3--------------|--0-----------------------|
    
    
    e:--------------------------|-------------------------|
    B:--------------------------|-------------------------|
    G:--------4--------4-----4--|----------------4-----4--|
    D:-----4--------4-----------|-------------------4-----|
    A:--2-----------------0-----|--0----------2-----------|
    E:-----------3--------------|-----3--0----------------|
    |…
  • Verses:
    1st Guitar:
    |------0----0----0----0----0----0---0---0---0---0---0---0----|
    |-----10---10---10---10---10----0---0---0---0---0---0---0----|
    |------9----9----9----9----9----6---6---6---6---6---6---6----|
    |-----11---11---11---11---11----8---8---8---8---8---8---8----|
    |------0----0----0----0----0----7---7---7---7---7---7---7---…
  • Rhy. Fig. 1
    
    Gtr. I
    
    Eb----------------|--------3------|---------------|3-------3------|
    Bb----------------|----------3----|---------------|--3-------3----|
    Gb-----0-----0---0|----0-------0--|----0-----0----|----0-------0--|
    Db---0-----0------|--0------------|--0-----0------|---------------|
    Ab----------------|---------------|------3-----6--|---------------|
    Eb-6-----5-----4--|3-----3-------3|6--------------|------3-------3|
    
    Gtr.…
  • Intro Solo with Riff A
    Riff A 8 times
    Riff B 8 times
    Riff C 2 times
    Riff D once
    Riff A 2 times
    Riff B 8 times
    Riff C 2 times
    Riff D once
    Riff A 2
    Outro Solo A with Riff A
    With Outro Solo C:
    Riff C 4 times
    Riff D once
    Riff…
  • 0:00:
    E---------2--------------2---------------0------------------------
    B---3-------3-------3------3-------3-------3-----3-2------2-------
    G-----2-------2-------2------2-------0-------0-------2------2-----
    D-0-----0-------0------0-------0-------0-------0-------2------2---…
  • Intro / Verse:
    
    
    Eb:-------------------------------|
    Bb:-------------------------------|
    Gb:--------7----6----2--2--2------|
    Db:---2----7----6----2--2--2--2---|
    Ab:---2----5----4----0--4--0--2---|
    Eb:---0-----------------------0---|
    
    Chorus:
    
    
    Eb:--------------------------------------------------------------------|
    Bb:--------------------------------------------------------------------|
    Gb:--------------------------------------------------------------------|
    Db:---5--------------------------7---------------------------------5---|
    Ab:---5--------------------------7---------------------------------5---|
    Eb:---3--------------------------5---------------------------------3---|…
  • Intro &verse
       -d|------------------------------------------------------------|-
       -a|------------------------------------------------------------|-
       -g|------------------------------------------------------------|-…
  • E-------------------------------------------------------------------------------
    B-------------------------------------------------------------------------------
    G-------------------------3--------3--------2-----------------------3--------3--
    D--------3--------2----------3--------------3--------3--------2-----3--3--3--3--
    A--------------------1----------1--------3-----------------------1-----1--1--1--
    E--0--3-----0--2----------------------1--------0--3-----0--2---------------------------------||
    -------------||
    ------2------||
    ------3------||
    ---3---------||
    1------------||…
  • Eb tuning (as usual)
    
    Rhy. fig. 1  Gtr. 1
    (end Rhy. fig. 1)
    |--------------------------|--------------------|--------------------------|-------------------|
    |--------------------------|--------------------|--------------------------|-------------------|
    |--------------------------|--------------------|--------------------------|-------------------|
    |--2--3--2-----------------|-----------------4--|--2--3--2-----------------|--------------5----|
    |--1--1--1--4--3--4--3--4--|--2--2--3--3--4--2--|--1--1--1--4--3--4--3--4--|--2--2--3--3--3--5-|
    |-----------2--2--2--2--2--|--0--0--1--1--2-----|-----------2--2--2--2--2--|--0--0--1--1-----3-|…
  • TUNING: Eb Ab Db Gb
    
    1st Verse
                                                PRE-CHORS
    what's gone wrong.......            what the f*ck ..........        plastic man ............
                                     4x…
  • very beginning    |lead intro  | rhythm intro riff                |
                        |            | verse riff           x3          |
    e:-----------------||-----------||---------------------------|-----||
    B:-----------------||-----------||*-------------------------*|-----||
    G:-----------------||-----------||---------------------------|-----||
    D:2--------2-------||-----------||*2------------------------*|2---3||
    A:2--------2-------||10--9--/14||-2-------------------------|2---3||
    E:0--------0-------||-----------||-0---5b(6)b(5)b(6)b(5)b(6)-|0---1||…
Наверх