Аккорды «Arctic Monkeys»

Arctic Monkeys
Юный квартет Arctic Monkeys взял ничего не подозревавшую Британию штурмом в самом начале 2006 года. Они появились практически из ниоткуда, и, тем не менее, их два дебютных сингла «I Bet You Look Good on the Dancefloor» и «When the Sun Goes Down» попали прямиком на первое место национального хит-парада, а их первый альбом «Whatever People Say I Am, That’s What I’m Not» -поставил абсолютный рекорд по количеству экземпляров, проданных в первую неделю продажи. Помимо этого Arctic Monkeys унесли с собой… Читать полностью... Юный квартет Arctic Monkeys взял ничего не подозревавшую Британию штурмом в самом начале 2006 года. Они появились практически из ниоткуда, и, тем не менее, их два дебютных сингла «I Bet You Look Good on the Dancefloor» и «When the Sun Goes Down» попали прямиком на первое место национального хит-парада, а их первый альбом «Whatever People Say I Am, That’s What I’m Not» -поставил абсолютный рекорд по количеству экземпляров, проданных в первую неделю продажи. Помимо этого Arctic Monkeys унесли с собой приз Brit Awards в категории «Лучшая новая группа», а также стали первым коллективом, сумевшим забрать награду журнала NME в номинациях «Лучшая новая группа» и «Лучшая группа» одновременно. «Арктические мартышки» появились на свет в 2002 году в местечке Хай Грин, пригороде английского города Шеффилда. Началось все с того, что двое соседей-приятелей, Алекс Тернер и Джейми Кук, одновременно попросили своих родителей подарить им на Рождество по какому-нибудь музыкальному инструменту. Оба получили по электрогитаре и, самостоятельно освоив азы игры, решили сколотить группу. В ее состав также вошли школьные приятели парочки гитаристов Энди Николсон и Мэтт Хедлерс. Николсон уже играл на басу, и поэтому Хедлерсу не оставалось ничего иного, как занять позицию ударника — «У них у всех уже были свои гитары, поэтому мне пришлось купить себе ударную установку». Группа сразу же взяла себе название Arctic Monkeys. Несмотря на то, что позже группа напридумывала массу смешных историй о том, откуда это название взялось (вплоть до того, что так называлась группа, в которой когда-то играл отец Хедлерса), автором названия был и остается гитарист Джейми Кук, который, как оказалось, с самого детства мечтал играть в группе с таким названием. Репетировали парни в пустом складе в Нипсэнде, а свой первый концерт сыграли 13 июня 2003 года в Шеффилде. Отыграв несколько концертов, группа начала записывать демо-записи, нарезать их на CD-болванки и раздавать на концертах бесплатно. Поскольку количество дисков было ограничено, поклонники начали сами копировать эти песни друг другу и даже выкладывать их в Интернет. Музыканты не возражали — «В конце концов, мы сами раздавали эти диски совершенно бесплатно. И потом, так концерты получались лучше, потому что люди уже знали наши песни и могли подпевать». Позже музыканты признавались, что они даже не знали, как выкладывать свою музыку в Интернет. Страничка группы на популярном блоге MySpace.com, которой многие критики позже приписывали столь феноменальную популярность юной группе, была создана без участия музыкантов — они признались, что узнали о ее существовании только тогда, когда их начали постоянно спрашивать об этом в интервью. К концу 2004 года группа уже имела широкую известность на севере Англии, и ими заинтересовалось Radio 1. Тогда же местный фотограф-любитель Марк Булл снял их выступление на видео и по собственной инициативе смонтировал парням видеоклип на песню «Fake Tales of San-Francisco», который был выложен в Интернете. Первая официальная запись Arctic Monkeys, пяти-песенный EP «Five Minutes with Arctic Monkeys», вышла в свет в мае 2005 года. Хотя этот миньон был напечатан тиражом всего в 1000 копий (и еще 500 экземпляров в виде 7-дюймового винила), его также можно было приобрести в электронном виде в iTunes Music Store. Летом 2005 года Arctic Monkeys укрепили свое звание юной сенсации триумфальными выступлениями на главных английских фестивалях в Лидсе и Ридинге, посмотреть на которые собралось огромное количество народа. Несмотря на столь громкий успех, группа не торопилась подписывать контракт ни с одним из лейблов. «Прежде чем вокруг нас началась шумиха, представители лейблов всегда говорили „Да, это мило, но вот здесь хорошо бы кое-что изменить, и в этой песне я не очень уверен насчет того кусочка“», вспоминал Тернер. «Но мы никогда их не слушали». Дело дошло до того, что музыканты отказались вносить представителей звукозаписывающей индустрии в гостевые листы своих концертов, и тем приходилось платить за свои билеты. Парни следовали простой логике — «Мы добились всего, что у нас есть, без их помощи, так зачем же они нам понадобились сейчас?». Осмысленность этой позиции была подкреплена серией выступлений группы осенью 2005 года, билеты на которые разлетались быстрее горячих пирожков. Когда группа в момент распродала все билеты на концерт в легендарном Лондонском зале «Астория», они убедились в правильности собственного выбора. «В Лондоне концерт в первую очередь смотрели не важные мужики в костюмах, а простые зрители», рассказывает Тернер. «Мужики в костюмах все стояли сзади и смотрели на то, как зрители прутся от концерта. Это было здорово». В конце концов, парни заключили контракт с Domino Records, в первую очередь из-за симпатии к владельцу лейбла Лоуренсу Беллу, который занимался делами из собственной квартиры и заключал контракты только с теми группами, что нравились ему самому. Первый же официальный сингл группы, «I Bet that You Look Good on the Dancefloor», ракетой взлетел на первое место английских чартов, сбросив оттуда Робби Уильямса. Второй сингл, «When the Sun Goes Down», проделал ту же самую операцию — вот только в этот раз в качестве пострадавшего оказался не Уильямс, но Шэйн Уард. Материал для своего дебютного альбома группа записала еще осенью 2005 года, но релиз был тем не менее назначен на январь 2006 года. Несмотря на то, что большая часть песен альбома была уже доступна в ранних демо-версиях через Интернет, эксперты предрекали альбому судьбу блокбастера. И не ошиблись — в первую же неделю продаж альбом «Whatever People Say I Am, That’s What I’m Not» побил все рекорды продаж для дебютного альбома, разойдясь таким тиражом, какового не достигла вся остальная топ-двадцатка, вместе взятая. В США пластинка вышла месяцем позже, и за первую же неделю была продана тиражом около 350 тысяч экземпляров. Несмотря на то, что американские критики встретили юных англичан куда более сдержанно, чем их британские коллеги, американский тур Arctic Monkeys прошёл вполне успешно. В апреле 2006 года группа выпустила новый миньон под названием «Who the Fuck Are Arctic Monkeys?». Музыканты признавались в интервью, что они не намерены долго мочалить на концертах старый материал, и что новый полнометражный альбом уже почти готов. «Не представляю, чтобы мы делали, как какие-нибудь Coldplay, которые записывают альбом, а потом три года подряд дают один и тот же чертов концерт каждый вечер», признался гитарист Джейми Кук. «Может, кому-то и нравится так делать, но только не нам». Музыканты надеются выпустить новую пластинку уже к августу 2006 года. Тем временем, стало известно, что басист Энди Николсон, утомленный бесконечными гастролями, решил покинуть коллектив. Его место занял Ник О’Мэлли. Favourite Worst Nightmare (2007) 16 апреля 2007 вышел первый сингл с нового альбома — «Brianstorm». Сам альбом, получивший название «Favourite Worst Nightmare», появился в продаже 23 апреля и уже 29 апреля занял первое место в чарте UK Albums Chart. Вторым синглом с альбома стала песня «Flourescent Adolescent». Би-сайдами стали «The Bakery», «Plastic Tramp» и «Too Much to Ask». Тур в поддержку альбома «Favourite Worst Nightmare» завершился 17 декабря 2007 концертом в Манчестере, который 3 ноября 2008 был издан на DVD под названием "Arctic Monkeys Live at the Apollo", а 14 октября вышел в кинопрокат. Третий студийный альбом (2008 — 2009) Запись третьего студийного альбома Arctic Monkeys, релиз которого предварительно намечен на июнь 2009 года, началась в январе 2008; его продюсером стал лидер группы Queens of the Stone Age Джош Хомм. По состоянию на январь 2009 года, по словам Алекса Тёрнера, запись альбома близится к завершению: Несколько новых песен, например, «Put Me In A Terror Pocket», «Sandtrap» и «The Fire and The Thud», были сыграны на концертах в течение 2007 года. 13 января 2009 года на концерте в Веллингтоне (первом выступлении группы после вышеупомянутого концерта в Манчестере в конце 2007 года) были впервые представлены ещё четыре трека, которые предположительно войдут в третий студийный альбом группы: «Crying Lightning», «Go-Kart», «Dangerous Animals» и «Pretty Visitors». Сообщение об этом появилось 16 января на официальном сайте группы; в тот же день был радикально изменён его дизайн 14 мая 2009 года группа опубликовала на YouTube ролик, посвящённый двадцатитрёхлетию Мэтта Хелдерса, в который вошли короткое интервью с ним и отрывки репептиций нового материала. По словам Хелдерса, третий альбом группы находится на стадии микширования и будет выпущен до фестиваля Reading and Leeds Festival, начало которого намечено на 28 августа 2009 года. 1 июня 2009 на официальном сайте было объявлено, что альбом, ещё не имеющий названия, выйдет 24 августа на CD, виниле и в виде цифровых аудиофайлов для загрузки. Также был обнародован его треклист. 9 июня 2009 года в блоге группы на MySpace было озвучено название третьего студийного альбома — Humbug. 6 июля на радиостанции BBC Radio 1 состоялась радиопремьера первого сингла с него — «Crying Lightning»; в этот же день песня стала доступна для скачивания в iTunes. Выход сингла на CD запланирован на 17 августа. Однако, потерь избежать не удалось: прямо перед Web Transmission, онлайн-концертом, в котором Arctic Monkeys должны были представить свой новый альбом, 29 июля Humbug появился в сети и теперь он доступен для скачивания. В ноябре 2009 г. Arctic Monkeys объявили о выпуске второго сингла «Cornerstone», включающего три новые песни «Catapult», «Sketchead» и «Fright Lined Dining Room» Suck It and See (2011) 10 марта 2011 года на официальном сайте Arctic Monkeys появилась информация о том, что четвёртый альбом группы, получивший название «Suck It and See», выйдет 6 июня 2011 года. Альбом был записан в Лос-Анджелесе в 2010—2011 годах под руководством продюсера Джеймса Форда, в сотрудничестве с которым группа уже записала альбомы Favourite Worst Nightmare и Humbug. 4 марта была представлена новая песня под названием "Brick By Brick". По словам Мэтта Хелдерса, она не является синглом; музыканты обнародовали её для того, чтобы дать понять, как будет звучать новый альбом. Состав: * Алекс Тёрнер (Alex Turner) * Ник О’Мэлли (Nick O’Mally) * Джейми Кук (Jamie Cook) * Мэтт Хелдерс (Matt Helders) Дискография Альбомы: * Whatever People Say I Am, That's What I'm Not (23 января 2006) * Favourite Worst Nightmare (24 апреля 2007) * Humbug (25 августа 2009) * Suck It and See (6 июня 2011) EP's: * Five Minutes with Arctic Monkeys (30 мая 2005) * Who the Fuck Are Arctic Monkeys? (24 апреля 2006) Синглы: * I Bet You Look Good on the Dancefloor (14 октября 2005) * When the Sun Goes Down (16 января 2006) * Leave Before the Lights Come On (14 августа 2006) * Brianstorm (16 апреля 2007) * Matador (18 июня 2007) * Fluorescent Adolescent (9 июля 2007) * Teddy Picker (3 декабря 2007) * Crying Lightning (17 августа 2009) * Cornerstone (16 ноября 2009) * My Propeller (22 марта 2010) * Don't Sit Down 'Cause I've Moved Your Chair (16 апреля 2011) * The Hellcat Spangled Shalalala (15 августа 2011) * Suck It and See (31 октября 2011) * Black Treacle (23 января 2012) Другое: * Scummy Man (1 октября 2006) * At The Apollo (1 января 2008) Скрыть...
Популярные аккорды Arctic Monkeys:
алфавиту | просмотрам | случайно
  • Intro:
    D Bm Em A    x2
    
                                D
    You used to get it in your fishnets
                                 Bm
    Now you only get it in your night dress
                                        Em
    Discarded all…
  • Am          F           Am             F
    Outside the cafe by the cracker factory
             Am           F     C     E
    You were practicing a magic trick
           Am           F            Am         F
    And my thoughts got rude,…
  • Intro
    e-------I-------|I
    b-------I-------|I
    g-------I-------|I
    D-7-7-7-I-------|I
    A-7-7-7-I-------|I
    E-5-5-5-I-10^12-|I
    
    e-----------------------------------------------------------------------------------|
    b-----------------------------------------------------------------------------------|
    g-----------------------------------------------------------------------------------|
    D-7-7-7-------------7-7-7-------------------7-7-7----------------7-7-7--------------|
    A-7-7-7---------15--7-7-7----------17^19^17-7-7-7----------15-17-7-7-7-17^19-17-15--|
    E-5-5-5-15-15-17----5-5-5-15-15-17----------5-5-5-15-15-17-------5-5-5--------------|
    
    Verse
    e----------------------------|
    b----------------------------|
    g----------------------7-7-7-|
    D-7-7-7--7-7-7--3-3-3--7-7-7-|
    A-7-7-7--7-7-7--3-3-3--5-5-5-|
    E-5-5-5--5-5-5--1-1-1--------|…
  • Chords:
    
    Emin (x-7-9-9-8-7)----|
    Dmin (x-5-7-7-6-5)----|
    Fmaj (x-8-10-10-10-8)-|
    
    Intro and verse:
    
    e:---------------------------------------|
    B:---------------------------------------|
    G:---------------------------------------|
    D:---------------------------------------|
    A:----------7-7-7-77--8-8-8-88--5-5-5-55-|
    E:-5-5-5-55------------------------------|
    
    Chorus:
    Dmin…
  • Intro: Am Am E Am
    
    
       Am                         
    Despair to the point till they provoke
          Am                                 
    The punchline before they have told the joke
          Am                      
    The…
  • Last night these two bouncers
      B
    And one of em's alright
    
    The other one's the scary one
       D               Em
    His way or no way, totalatarian
    B
    He's got no time for you
                     
    Looking or breathing
    D
    How…
  • Main Riff (Intro and Verses):
    
    e |---------------------------------------------------------------------|
    B |---------------------------------------------------------------------|
    G |---------------------------------------------------------------------|
    D…
  • It's not perfect, but it's a start.
    
    00.19: This repeated guitar strum pattern is heard through out the verses, so if 
    you can copy the strum here's the chords
    A-G-A-E If not, there's good old easy E.
    Top chords are…
  • Intro (up and down really fast or hit the note and stop it really quickly over and 
    seem to sound ok)
    G|--------|
    D|--------|
    A|-8-8-8-8|    0:00 - 0:24
    E|--------|
    
    Verse
    G|-----------------------------------------------|
    D|-----------------------------------------------|
    A|-8--4-3--4-4-6-7--10---------------------------|…
  • Dmaj7    C#m7    Bm7      A       E      E6
    |----2-------4-------2-------0-------0-------0----|
    |----2-------5-------3-------2-------0-------2----|
    |----2-------4-------2-------2-------1-------1----|
    |----0-------6-------4-------2-------2-------2----|
    |----x-------4-------2-------0-------2-------2----|
    |----x-------x-------x-------x-------0-------0----|…
  • Intro C
    
    C                                 Am
    I etched the face of a stopwatch
    
    Am                        E
    On the back of a raindrop 
    
    E                                 F 
    And did a swap for the sand in an hourglass.
    
    C…
  • E                     B            C#m                      F#m    
    I wish you would have smiled in the bakery or sat on a tatty sette
       A
    at some mutual friend's gathering 
               E                 B…
  • D                        F#m
    he's pining for her in a people carrier
                   Bm                                               A
    there might be buildings and pretty things to see like that but architecture won't do…
  • Verse
    e-----------------------------------------------------------------------------------|
    B-----------------------------------------------------------------------------------|
    G-----------------------------------------------------------------------------------|
    D-----------------------------------------------------------------------------------|
    A---------------2h4---2h4--5--5-5-5-4--2-2/14---------------------------------------|
    E--2--2-2---------------------------------------------------------------------------|
    
    Chorus:…
  • Intro:
           Em                B7          Dm      Am
    e|------------------------2-----------1-------8----------------------------|
    B|------------------------0-----------3------10----------------------------|
    G|--------0---------------2-----------2-------9----------------------------|
    D|-------2--2/5--4--------1--------0---------------------------------------|
    A|-----2------------6/2---2-----------------0------------------------------|
    E|---0--------------------0------------------------------------------------|
    
    Verse…
  • intro: Bb-Ebm x2
    
    E||------6-8-6-5-6/10-5---------------|
    B||-----------------------------------|
    G||-----------------------------------|
    D||-----------------------------------|
    A||-----------------------------------|
    E||-----------------------------------|
    
    Bb…
  • B- 7 9 9 8 7 7
    Eb7- x 6 8 6 8 6
    E/Eb?- x 7 9 8 9 7 (im not too sure what its called)
    Ebm- x 6 8 8 7 6
    C#m- x 4 6 6 5 4
    F#- x 9 11 11 x x
    E- x 7 9 9 x x
    G#m- 3 5 5 3 3 3
    Bm- x 2 4 4 3 2
    G- 3 5 5 4 3 3
    F#(version…
  • INTRO
    
    Jamie (Tremolo Picking)
    |----------------|
    |--13----15-13---|
    |----------------|
    |----------------|
    |----------------|
    |----------------|
    
    
    
    VERSE 1
    
    "You think excitement has receded..." '0:43'
    Jamie…
  • e|---------------------------------------------------------------|
    B|---------------------------------------------------------------|
    G|---------------------------------------------------------------| x2
    D|---------------------------------------------------------------|
    A|9-9-9-9-5-5-5-5-9----------------------------------------------|
    E|---------------------------------------------------------------|
    
    
    this…
  • A F# F
    There's always somebody taller
    With more of a wit
    And he's equipped to enthrall her
    And her friends think he's fit
    And you just can't measure up no
    You don't have a prayer
    Wishing you had made the most of her
    When…
  • Chords used:
    
        Dm   Em
    e|---5----7-----|
    B|---6----8-----|
    G|---7----9-----|
    D|---7----9-----|
    A|---5----7-----|
    E|---X----X-----|
    
    
    
    I'm going back to 505 if it's a 7 hours flight or a 45 minute drive
    In my imagination…
  • D       B7
    Baby, I'm yours,
                Em              A                   D     B7
    And I'll be yours until the stars fall from the sky,
     Em             A              G
    Yours until the rivers all run dry,
             F#m…
  • B  (let it ring out)
    
    B   A      B   A       B   A       B
    
    B                    E         D
    Come and take a leaf out of my book
         B   
    I'm a crack dealing crook
             E                D          B 
    Selling…
  • Intro
    
    e --2-5-9999  x12
    
    Verse 1
    
    F#m
    Well the morning was complete.
              F#m
    There was tears on the steering wheel dripping on the seat,
    F#m
    Several hours or several weeks,
                 F#m
    I'd have the…
  • Chords:
    	
    	E  A  D  G  B  E
    D	x  5  7  7  7  x
    F#	x  9  11 11 11 x
    G	x  10 12 12 12 x
    F#m	x  9  11 11 10 11
    Em	x  7  9  9  8  7
    A	5  7  7  6  5  5
    G(2)	3  5  5  4  3  3
    Bm	7  9  9  7  7  7
    F#5	2  4  4  x  x  x
    G5	3…
  • Tuning: standard
    
    Riff 1:
    e|-----------------|
    B|-----------------|
    G|-----------------|
    D|-----------------|
    A|-------0-5-4-2p0-| a few times
    E|-2-2-2-----------|
    e|-----------------|
    
    then they mix the first…
  • INTRO:
    D G D G
    
    
    VERSE 1:
    D          G    D          G
      Topless models doing semaphores 
    D                   G               D       G
    wave their flags as she walks by and get ignored
    D        G     D…
  • Tuning:EADGBe
    
    Intro
    
    e|---------------------------------------------------------------------------|
    B|---------------------------------------------------------------------------|
    G|---------------------------------------------------------------------------|
    D|---------------------------------------------------------------------------|
    A|----0-2-0--2-0---0--------0-2-0--2-0---0-----------------------------------|
    E|---------------2---------------------2-------------------------------------|
    
    Bm…
  • Bm:    X-2-4-4-3-2
    Em7:   0-2-2-0-3-0
    Em:    0-2-2-0-0-0
    A:     X-0-2-2-2-0
    Em7/D: X-X-0-0-0-0
    Cmaj7: X-3-2-0-0-0
    A7:    X-0-2-0-2-0
    F#m:   2-4-4-2-2-2
    C:     X-3-2-0-1-0
    F#7:   2-4-2-3-2-2
    C#dim: X-X-2-3-2-3
    
    Intro:
    
    Bm…
  • Chords
    Em |789977|
    Bm |799777|
    Am |577555|
    G  |355433|
    
    Intro
    
    E|-7-----7-----7-----------------------------------------------------------|
    B|-8----8------8----------10-12-10-8-10-8-----------------12-10--10-----12~|
    G|-9---9-------9-------------------------11-9--------9-11------12--1211----|
    D|----------------------------------------------10-12----------------------|
    A|--------------------------------------------12---------------------------|
    E|-------------------------------------------------------------------------|
    
    Verse…
  • Intro - Guitar 1
    
    E---------|
    B---------|
    G---------|
    D--5--5--5|        x17
    A-7-67-67-|
    E---------|
    
    Guitar 1
    
    E--------|----------|
    B--8--8--|-5-87-5-87|
    G-9-89-89|5----5----|
    D--------|----------|
    A--------|----------|
    E--------|----------|
    
    Guitar…
  • Intro
    
    E C#m Abm A A*(12th fret) E 
    A F#m(9th on A) Abm(11th...) C# F#m 
    E
    
    E    C#m              Abm
    Lady, where has your love gone?
           A                 A*            E     E7
    I was looking but can't find…
  • intro 
    A Eb x3
    
    Verse:
    A G C E A E B E  X2
    A G C E A E |C D| E
    A G C E A E B E 
    
    
    A   G   C  E    A      E            B       E
      Anticipation has a habit to set you up
    A        G     C    E  A           E…
  • Intro/ Verse 1:
    e|---------------------------------------------------------------------------|
    B|---------------------------------------------------------------------------|
    G|---------------------------------------------------------------------------|
    D|---------------------------------------------------------------------------|
    A|---4--/6-------------------------------------------------------------------|
    E|-----------2---------------------------------------------------------------|
    
    
    Chorus:…
  • G|-----------------------------------------------------|
    D|----------------------------------------------10--9--|
    A|7h9-9--9~-9--7h9-9--9~-9--7h9-9--9~-9--7h9-9---------|x4
    E|-----------------------------------------------------|
    
    if…
  • Guitar 2
    
    e|-----------------------3-2-3-----3-----------------------|
    B|--7----7-8-7-5---3-0-3-------0-3---7----7-8-7-5--3-0--0--|
    G|---6-7-------------------------------6-7-------------2---|
    D|---------------------------------------------------------|
    A|---------------------------------------------------------|
    E|---------------------------------------------------------|
    
    
    Now…
  • verse 1
    Ebm                  F#
    Well, I watch you tangle every weekend
    B                               Bb
    It might start different but it ends up the same
    Ebm                  F#
    One minute you're casually speaking
    B…
  • INTRO/VERSE
    It should be: 
    
    E|----------------------------------------------------------------------|
    B|----------------------------------------------------------------------|
    G|----------------------------------------------------------------------|
    D|----7-10--------7-10--------7-10--------7-10--------------------------|
    A|--0-----------0-----------0----------0--------------------------------|
    E|---------0-0---------0-0---------0-0---------0-0----------------------|
    
    play…
  • Guitar 1 (Alex Turner)
    
    
    Intro
    A
    
    Verse 1
    A
    I thought I saw you in the battleship
    D                    Bm
    but it was only a look-a-like
    A
    She was nothing but a vision trick
    D              Bm
    Under the warning light
    F#m…
  • VERSE:
    Cm                         Fm
     Meet you downstairs in the bar and heard
         G7                         Cm
    your rolled up sleeves in your skull t-shirt.
            Cm                Fm
    Said what did you do with…
  • e|-----------------------------------------------------------------------------|
    B|-----------------------------------------------------------------------------|
    G|-999-7-----999-7-------------------------------------------------------------|
    D|-------10---------10-7-----7-10-7----7---10----------------------------------|
    A|------------------------10----------10---------------------------------------|
    E|-----------------------------------------------------------------------------|
    
    Play…
  • Rythem
    Intro/Verse
    
    E|----------------|
    B|----------------|
    G|2-2-2-----------|
    D|2-2-2---3-3-3---|      Repeat as neccesary.
    A|0-0-0---3-3-3---|
    E|--------1-1-1---|      Note: This cuts out while the bass still…
  • Intro:
    
    e|----|
    H|-2~-|
    G|-2~-|
    D|-2~-|
    A|-0~-|
    E|----|
    
    e|-----------------------------------------|
    H|-12p-10----12p-10----12p-10----12p-10----|
    G|--------11--------11--------11--------11-|   Few Times
    D|-----------------------------------------|
    A|-----------------------------------------|
    E|-----------------------------------------|
    
    One,…
  • Intro and Verse I:
    
    E--2--3--|--3--2--|
    B--3--4--|--4--3--|
    G--4--5--|--5--4--|
    D--------|--------|
    A--------|--------|
    E--------|--------|
    
    Repeat 17x
    
    chorus I:
    
    E-----------------------|
    B-----------------------|
    G-----------------------|
    D----------------4------|
    A--------------5--------|
    E--7-7-5-7-5-7-------8--|
    
    Repeat…
  • e|-------------------------------------------------------------------------|
    b|----------------------6b---------------------7---------------------------|
    g|------------------4h6----6b-4b---------4-6s8---6-8-4-6p4-----------4-6p4-|
    d|---6-6-4-6-6-4h5h6-------------6-6-4-6-------------------6-6-6-4-6-------|
    a|-------------------------------------------------------------------------|
    e|-4-----------------------------------------------------------------------|
    
    e|------------------------7-9-9-9-7-9-7-9-7-------------------------------|
    b|------------6s9-9-9-7-9-------------------9-7---------------------------|
    g|---4------------------------------------------8-6-4-4h6s8-4-6s8-4-6s8-4-|
    d|-6---6------------------------------------------------------------------|
    a|------------------------------------------------------------------------|
    e|------------------------------------------------------------------------|
    
    
    e|-----------------------------------------------------------------------|
    b|----------------------6s9-9--------------------------------------------|
    g|6-4-------4---4---4-4-------6-6----------------------------------------|
    d|----6-4h6---6---6------------------------------------------------------|
    a|-----------------------------------------------------------------------|
    e|-----------------------------------------------------------------------|…
  • Intro
    
    e----------------------------------------|
    B----------------------------------------|
    G-4-2----------2------4-2----------2-----|
    D-----4--4-2-4---4-2------4--4-2-4---4-2-|
    A----------------------------------------|
    E----------------------------------------|
    
    e----------------------|
    B----------------------|
    G----------------------|
    D--4-2----------2------|
    A------4--4-2-4---4-2--|
    E----------------------|
    
    e|----------------------|
    B|----------------------|
    G|-----------6-6--5-----|
    D|-4-4--7-7--6-6--5-----|
    A|-4-4--7-7--4-4--3-----|
    E|-2-2--5-5-------------|
    
    
    Verse
    
    e|----------------------|
    B|----------------------|
    G|-----------6-6--------|
    D|-4-4--7-7--6-6--5-5---|
    A|-4-4--7-7--4-4--5-5---|
    E|-2-2--5-5-------7-7---|
    
    Post…
  • Riff 1
    
    e|---------------------------------------------------------------------|
    B|---------------------------------------------------------------------|
    G|---------------------------------------------------------------------|
    D|--12…
  • VERSE riff guitar 1         guitar 2
    
    e--------------             e---9-9------|
    B--------------             B---9-9------|
    G--------------             G---9-9------|
    D--------------             D------------|
    A-9-7-9-7------…
  • Guitar 1 riff
    
    e|---------------------------------------------------------------|
    B|---------------------------------------------------------------|
    G|---------------------------------------------------------------|
    D|---------------------------------------------------------------|
    A|----------4-4--3-3------------4-4--3-3---------------------1---|
    E|-2-2-2-2-------------2-2-2-2------------3-3-3-3-3-3-3-3-3------|
    
    Guitar…
  • B Eb7 Emaj7 
    said whose that girl there? i wonder what went wrong so that she 
    what a scummy man give him half a chance i bet he'd 
    
    Bmaj7 Emaj7 
    has to roam the streets dunt do major credit cards i 
    rob you if he…
  • Intro: (0:05 - 0:14)
    
           |   .   .   .   |   .   .   .   |   .   .   .   |   .   .   .
    e|---------------------------------------------------------------------------|
    B|---------------------------------------------------------------------------|
    G|---------------------------------------------------------------------------|
    D|---------------------2-2-----------------------------2-2-----2-5-2---------|
    A|-------------3-5---------5---3---2-----------3-5---------5-----------------|
    E|-----5-5-5---------------------------5-5-5---------------------------------|…
  • Tuning: E A D G B E (Standard)
    
    Chords Used-
    
        Bb Dm  C#m Eb F# F  C#
    e|--6--10--9---6--9--8--4-------------------------------------------------------------|
    B|--6--10--9---6--9--8--4-------------------------------------------------------------|
    G|--7--10--9---8--11-10-6-------------------------------------------------------------|
    D|--8--12--11--8--11-10-6-------------------------------------------------------------|
    A|--8--12--11--6--9--9--4-------------------------------------------------------------|
    E|--6--10--9--------------------------------------------------------------------------|
    
    Intro-
    Bb…
  • Verse 1
    B
    Well oh they might wear classic Reeboks
    B
    Or knackered Converse
    B
    Or tracky bottoms tucked in socks
    E 
    But all of that's what the point is not
                                    Em
    The point's that there ain't no…
  • Intro and main riff:
    
    e----------------------------------------------------------------------------|
    b----------------------------------------------------------------------------|
    g----------------------------------------------------------------------------|
    d----6--3333-2-0-------------------------------------------------------------|
    a--------------------(times…
  • INTRO:
    Guitar 1 & 2
    
    e|----------------------------------------------|
    B|----------------------------------------------|
    G|--------------------------------------------7-|
    D|--9-9-9-9-9-9-9-9-9-9-9-9-9-9-9-9--5--7--9--7-|
    A|--9-9-9-9-9-9-9-9-9-9-9-9-9-9-9-9--5--7--9--5-|
    E|--7-7-7-7-7-7-7-7-7-7-7-7-7-7-7-7--3--5--7----|
    
    
    
    Verse…
  • Intro
    
    F    A7    Dm    F    Bb    Gm    F    A7    Dm    F    Bb    Gm    F
    
    
    
    
    1st verse
    
          F                  A7                   Dm
    In a foreign place, the saving grace was the feeling
         F…
  • Intro
    E|----------|
    B|----------|
    G|----------|
    D|----------|
    A|--2----5--|
    E|----------| x4
    
    Verse
    E|----------|
    B|----------|
    G|----------|
    D|----------|
    A|--2----5--|
    E|----------| x8
    
    E|---------------|
    B|---------------|
    G|---------------|
    D|-----9--7------|
    A|--7--------10--|
    E|---------------|…
  • 0.16
    e|-------|
    B|-------|
    G|-------|
    D|-------|
    A|-------|
    E|15~~~--
    
    0.37
    e|--------------------------------|
    B|13/19---13-12-10----------------|
    G|----------------13-11-9----9-11-|
    D|------------------------11------|
    A|--------------------------------|
    E|--------------------------------|
    0.43
    e|------------------------------14^/-|
    B|------10-12-14-------10-12-14------|
    G|11-13----------11-13---------------|
    D|-----------------------------------|
    A|-----------------------------------|
    E|-----------------------------------|
    
    0.51
    e|----------------------|
    B|14-12-14-12-10--------|
    G|---------------13-11~-|
    D|----------------------|
    A|----------------------|
    E|----------------------|
    
    0.59
    e|-------------|…
  • I believe it's drop D tuning.
    e||-------------------------------------||
    B||.-----------------------------------.||
    G||-------------------------------------|| 
    D||-------------------------------------|| 
    A||.-5-----5-7-5---5-7-5---5-7-5-8-7-6-.||…
  • Bm               F#m
    Running off over next doors garden
      D                Bm
    Before the hour is done
         Bm                 F#m
    It's more a question of feeling
            D                F#m
    Than it is a question of fun…
  • Rhythm
    E|-3--3--3-3-3--3-/-6-6-6--6-/-8--8--8---------------------------|
    B|-3--3--3-3-3--3-/-6-6-6--6-/-8--8--8---------------------------|
    G|-4--4--4-4-4--4-/-7-7-7--7-/-9--9--9---------------------------|
    D|-5--5--5-5-5--5-/-8-8-8--8-/-10-10-10--------------------------|
    A|-5--5--5-5-5--5-/-8-8-8--8-/-10-10-10--------------------------|
    E|-3--3--3-3-3--3-/-6-6-6--6-/-8--8--8---------------------------|
    
    
    Lead
    E|------------------------------------------------------------|
    B|------------------------------------------------------------|
    G|-0-3-5--7-7-7-7-7-5-3-0--0-3-5--7-7-7-5-3-0-0-3--0-0-3------|
    D|------------------------------------------------------------|
    A|------------------------------------------------------------|
    E|------------------------------------------------------------|
    
    
    E|--------------------------------------------------------------|
    B|--------------------------------------------------------------|
    G|-0-3-5--7-7-7-7-7-5-3-0--0-3-5--7-7-10-7-5-3b-3b-3b-5b-5b-5b--|
    D|--------------------------------------------------------------|
    A|--------------------------------------------------------------|
    E|--------------------------------------------------------------|…
  • Verse
    e---------------    -----------------|
    B---------------    -----------------|
    G---------------    -----------------|
    D---4-2---------    -----------------|
    A-------4-3-2-0- x3 -----------------|
    E-2-------------…
  • E                              C#m
    Your love is like a studded leather headlock
         F#m                              B
    Your kiss it could put creases in the rain
           E                                 C#m
    You're rarer…
  • chords used:
         C       D#      G        A#      G*      C*      F       F#      G#
    e|---8-------6-------10-------6-------3-------3-------8-------9-------4----|
    B|---8-------8-------12-------6-------3-------5-------10------11------4----|
    G|---9-------8-------12-------7-------4-------5-------10------11------5----|
    D|---10------8-------12-------8-------5-------5-------10------11------6----|
    A|---10------6-------10-------8-------5-------3-------8-------9-------6----|
    E|---8-------X-------X--------6-------3-------X-------X-------X-------4----|
    
    Riff…
  • E A D G B E
    A	5 7 7 6 5 5
    F	1 3 3 2 1 1
    E	0 2 2 1 0 0
    D#	x 6 8 8 8 6
    D	x 5 7 7 7 5
    c	x 3 5 5 5 3
    Ab	4 6 6 5 4 4
    G	3 5 5 4 3 3
    F*	x 8 10 10 10 8
    E*	x 7 9 9 9 7
    c*	8 10 10 9 8 8
    
    This chords dont line up with…
  • B         [Ebm]             [Abm]
    Do you still feel younger than you thought you would by now?
         E                                [F#m]
    Or darling have you started feeling old yet?
            B         [Ebm]…
  • e|----------------------------------------------------------|
    B|----------------------------------------------------------|
    G|----------------------------------------------------------|
    D|----------------------------------------------------------|
    A|----3h5r3-------3h5r3-------3h5r3-------3h5r3-------3h5r3-|
    E|--5-------3-4-5-------3-4-5-------3-4-5-------3-4-5-------|
    
    e|---------------------------------------|
    B|---------------------------------------|
    G|---------------------------------------|
    D|---------------------------------------|
    A|----3h5r3-------3h5r3-------3h5r3h5^6--|
    E|--5-------3-4-5-------3-4-5------------|…
  • :INTRO:
    GUITAR ONE
      B5                                    D       G5  C#
    |--------------------------------------------------------------------|
    |--------------------------------------------------------------------|
    |---------------------------------------11--x--12--10----------------|
    |-9-9-9-9--9-9-9-9--9-9-9-9--9-9-9-9----12--x--12--11----------------|
    |-9-9-9-9--9-9-9-9--9-9-9-9--9-9-9-9----12--x--10--11----------------|
    |-7-7-7-7--7-7-7-7--7-7-7-7--7-7-7-7----10--x------9-----------------|
    |GUITAR…
  • INTRO & VERSE
    
    Jamie Cook - Guitar 2
    
    e|-----------------|
    B|-----------------|
    G|-----------------| x4
    D|-----------------|
    A|-----------------|
    E|5-5-5-4-4-4-3-2--|
    
    Alex Turner - Guitar 1
    
    e|---------------
    B|17~~~~~~~~~~~~~
    G|---------------|…
  • G|-------------------------|
    D|-------------------------|
    A|--------------5-7--------|
    E|12\-0-3---3-3------0-0-0-|
    
    G|-------------------------|
    D|-------------------------|
    A|-----------5-(7)---------|x2
    E|0--3---3-3---(0)--0-0-0--|
    Notes…
  • G|--------------------------------------------|
    D|--------------------------------------------|
    A|777777777-----------------------------------|
    E|----------3-8-7-5-7-5~--8-7-5-3-7-5-3-2-0~--|
    
    
    Come back in with the…
  • Intro
    E|----------------------------------------------------------------------|
    B|----------------------------------------------------------------------|
    G|----------------------------------------------------------------------|
    D|--9/77777777-131313-999-----------------------------------------------|
    A|--9/77777777-131313-999-----------------------------------------------|
    E|--7/55555555-111111-777-----------------------------------------------|
    
    Verse
    E|----------------------------------------------------------------------|
    B|----------------------------------------------------------------------|
    G|-8--------------------------------------------------------------------|
    D|-8-8------------------------------------------------------------------|
    A|-6-8------------------------------------------------------------------|
    E|---6------------------------------------------------------------------|
    
    
    Chorus
    E|----------------------------------------------------------------------|
    B|----------------------------------------------------------------------|
    G|----------------------------------------------------------------------|
    D|--8-6-4---------------------------------------------------------------|
    A|--8-6-4---------------------------------------------------------------|
    E|--6-4-2---------------------------------------------------------------|
    
    Solo
    E|----------------------------------------------------------------------|
    B|----------------------------------------------------------------------|
    G|----------------------------------------------------------------------|
    D|-6666-99-131313-12-1212-----------------------------------------------|
    A|-6666-99-131313-12-1212-----------------------------------------------|
    E|-4444-77-111111-10-1010-----------------------------------------------|
    
    Guitar2
    E|----------------------------------------------------------------------|
    B|----------------------------------------------------------------------|
    G|----------------------------------------------------------------------|
    D|---6~-/9-/13/12~------------------------------------------------------|
    A|----------------------------------------------------------------------|
    E|----------------------------------------------------------------------|…
  • Intro Pt1
    E|-------------|---------------|-------------|------------|
    B|-------------|---------------|-------------|------------|
    G|-------------|-------------3-|-5/7-5-3-5-3-|------------|
    D|-------------|---0--3-4-5----|-------------|-5-4-3------|
    A|----1----3-1-|-3-------------|-------------|-------5-4-3|
    E|-3----1------|---------------|-------------|------------|…
  • 00:10
    G|----------------|
    D|3-2-0-----------|
    A|------3-2-0-2-3-|
    E|----------------|
    
    G|----------------|  |------------|
    D|----0-3-2-0-----|  |2--0--3-3-3-|
    A|0-2---------3-2-|x7|------------|
    E|----------------|  |------------|
    
    G|----------------|…
  • B:      7998xx
    Eb7:    x6887x
    Emaj7:  779897
    C#m:    x466xx
    F#:     x9,11,11,xx
    E:      x799xx
    Ebm:    x688xx
    Bm:     x24432
    G:      355433
    F#:     244322
    Gm:     466444
    F#m:    244222
    Em:     x22000
    A:…
  • Verse (0:23)
    "and I don't mean to rain"
    G|----------------------------------------------------------------------------|
    D|---------5-5-5-7-5\-----------5-5------------------5-5-5-7-5----------------|
    A|-----3/5------------------3/5-----7-5-7\-------3/5-------------5-7-5-0-3-3--|
    E|-3-3------------------3-3------------------3-3------------------------------|
    
    "one…
  • come in on 00:07
    G|--------|
    D|--------|
    A|9--/10--|
    E|--2-----|
    
    G|----------   --------------------------------------|
    D|----------   --------------------------------------|
    A|-/9--/10--x3 -------------10-9-7-9-10-9\--/9--/10--|
    E|2---2-----…
  • Intro: C Em Dm
    
    C                   Em                         Dm
    Well this is a good idea he wouldn't do it if it wasn't
    He wouldn't do it if it wasn't one. 
    C                  Em                          Dm
    Well…
  • Intro
    G|----------------------------------------------------------------------|
    D|----------------------------------------------------------------------|
    A|----------------------------------------------------------------------|
    E|---22---------------22-----------0-22-----------22--------------------|
    
    G|----------------------------------------------------------------------|
    D|----------------------------------------------------------------------|
    A|----------------------------------------------------------------------|
    E|---0-22---------------22-----------0-22-----------22------0-----------|
    
    G|--------------------------------------------------------------------|
    D|--------------------------------------------------------------------|
    A|--------------------------------------------------------------------|…
  • e---------------------------------------|
    B---------------------------------------|
    G---------------------------------------|
    D------6---4---0---4---4-----0---0------|
    A--2/7---7---7---7---7---7\2---2--------|
    E---------------------------------------|…
  • Verse:
    
    G:--------------------------------|
    D:--------------------------------|
    A:---4--4----4---4---3--3----3--3-|
    E:-2---2---2---2---2---2---2---2--|
    
    Chorus:
    
    G:------------------------------------------|
    D:------------------------------------------|
    A:----------------------03333333333333030---|
    E:-222222222222202--------------------------|
    
    Bass…
  • Riff:
    e----------------|
    B----------------|
    G---5-5-7b-5-----|
    D-7----------7-7-| REST
    A----------------|
    E----------------|
    
    Intro:
    Riff x4
    
    Verse:
    Riff x4
    
    Chorus:
    e--------------------------------------------------------|
    B--------------------------------------------------------|
    G-7-7-7-7-7-7-7-7-5-5-5-5-4-3-2-2-2--7-7-7--2-2-2--7-7-7-|
    D-7-7-7-7-7-7-7-7-5-5-5-5-4-3-2-2-2--7-7-7--2-2-2--7-7-7-|
    A-5-5-5-5-5-5-5-5-3-3-3-3-2-1-0-0-0--5-5-5--0-0-0--5-5-5-|
    E--------------------------------------------------------|
    
    e-------------------------------|
    B-------------------------------|
    G-7-7-7-7-7-7-7-7-5-5-5-5-4-3-2-|
    D-7-7-7-7-7-7-7-7-5-5-5-5-4-3-2-|…
  • Intro
    E|--4-------------3--4----|
    A|-2-24----------5--2--2-4| X4
    D|-----1-4-7/9\46---------|
    G|------------------------|
    
    Verse A                  Verse B
    E|-4-4-42-4-4-----4-2--| E|-4-4-42-4-4-----4-2|
    A|--2-2--2---2-4-2---2-|…
  • G|----------------------------|
    D|----------------------------|
    A|----12-11--12-8--10---------|x8
    E|10------------------11--13--|
    
    Chorus:
    G|----------------------------------------------------------------------------------------|
    D|----------------------------------------------------------------------------------------|
    A|10-10-10-8----------8-8-8---------------------12-11--11-11-12-----------12-11--11-11-12-|
    E|-----------10-6-8-9-------8-6-5-6-8-10--10-10-----------------10--10-10-----------------|
    
    G|-------------------------------|
    D|-------------------------------|
    A|10-10-10-8----------8-8-8-8-x--|
    E|-----------10-6-8-9------------|
    
    Verse:
    G|----------------------------|
    D|----------------------------|
    A|----12-11--12-8--10---------|x2
    E|10------------------11--13--|
    
    G|---------------------|…
  • Intro
    
    (mellow bit)
    
    Bass
    G|--------------------------------------------------------|
    D|--------------------------------------------------------|
    A|-4-4----------------4-4-----------------4-4-------------|
    E|-----5-5--2-2--5-5-------5-5--2-2--5-5-------5-5--------|
    
    
    Guitar
    e|---------------------------------------------------------|
    B|---------------------------------------------------------|
    G|-------2---2-4-2------------2----------------------------|
    D|-4-2-4---4-------4~---4-2-4---4-2-4-2----------2---------|
    A|--------------------------------------4~---2-4---4-2-0---|
    E|---------------------------------------------------------|
    
    
    
    (Not…
  • Wait until 00:41
    e|3~------3~------|
    B|4~--------------|
    G|5~--------------|
    D|----------------|
    A|----------------|
    E|----------------|
    
    Verse:
    e|----3~--------3~---------8~--------3~----|
    B|--4---------4----------9---------4-------|
    G|5---------5---------10---------5---------|
    D|-----------------------------------------|x2
    A|-----------------------------------------|
    E|-----------------------------------------|
    
    Chorus:
    e|-----8~----------10~--------3~---------8~---------8~--------3~----|
    B|---9----------11----------4----------9----------9---------3-------|
    G|10---------12-----------5---------10---------10---------3---------|
    D|------------------------------------------------------------------|
    A|------------------------------------------------------------------|
    E|------------------------------------------------------------------|
    
    Bridge
    e|--------------------3~--------------------|
    B|------------------4-----------------------|
    G|--------3-------5-----------------3-------|
    D|------5---6-5-3-----------------5---6-5-3-|
    A|3-5-6---------------------3-5-6-----------|
    E|------------------------------------------|
    
    e|-8~---------------------------8~---8~-------8~---8~---3~-------|
    B|-9~-------------------------9-------------9-----------4~-------|
    G|10~----------------------10------------10-------------5~-------|
    D|---------------------------------------------------------------|
    A|---------------------------------------------------------------|
    E|---------------------------------------------------------------|
    
    e|-----8~---10--8------8~---10--8--3~-----------------|
    B|---9---------------9-------------4~-----------------|
    G|10--------------10---------------5~-----------------|
    D|----------------------------------------------------|
    A|----------------------------------------------------|
    E|----------------------------------------------------|
    
    e|-8~--------------3~----------------|
    B|-9~--------------4~----------------|
    G|10~--------------5~----------------|
    D|10~--------------------------------|
    A|-----------------------------------|
    E|-----------------------------------|
    
    Chorus:
    e|----------------11~--------3~---------8~---------8~------------3~----|
    B|-------------10------------4~---------9~---------9~----------4-------|
    G|----------12---------------5~--------10~--------10~--------5---------|
    D|---------------------------------------------------------------------|
    A|---------------------------------------------------------------------|
    E|---------------------------------------------------------------------|
    
    Outro:
    e|----------------3~---------|…
  • Main riff (from 0:06):
    
    e|---------------------------------------|
    B|---------------------------------------|
    G|---------------------------------------|
    D|---------------------------------------|
    A|---------------------------------------|
    E|--2--2--2--2--0--5--0--2--2--2--2--2---|
    
    Chorus…
  • The Riff
    
    
    e|------------------------------------------------|
    B|------------------------------------------------|
    G|------------------------------------------------|
    D|------------------------------------------------|
    A|-------------------------7-10-9-7-10-9-7-9-(X2)-|
    E|-7-10-9-7-10-9-7-9-(X4)-------------------------|
    
    e|--------------------------------------------------------|
    B|-------------------------11--11-11--11--12-12-12-12--11-|
    G|-------------------------11--11-11--11--12-12-12-12--11-|
    D|-------------------------11--11-11--11--12-12-12-12--11-|
    A|-------------------------9---9--9---9---10-10-10-10--9--|
    E|-7-10-9-7-10-9-7-9-(X4)---------------------------------|
    
    Alex…
  • e|------|
    b|------|
    g|14b15-
    d|------|
    a|------|
    e|------|
    
    (kind of main riff)
    
    e|--------------------|
    b|--------------------|
    g|--------------------|
    d|--------------------|   X2
    a|-------5----1----4--|
    e|--3-----------------|
    
    then…
  • Tuning:Normal
    
    Finally someone has tabbed The Lovers - Me! Fantastic song by my favourite band but it 
    like no one could be bothered to tab it! My first tab and i'm only 15 but it sounds 
    to me! Cheers, Adam 15 Hull
    
    C#m…
  • Intro/first verse
    G|--------------|
    D|--------------|
    A|----6--4h5----|
    E|-3---6-----4--|
    
    One time there's a pause
    G|------------|
    D|------------|
    A|----6--5----|
    E|-3---6------|
    
    little interruption
    G|----------------|
    D|----------------|
    A|-4-5---4-5------|
    E|-----4-----4----|
    
    prechorus
    G|------------------------------------|
    D|------------------------------------|
    A|---6--4h5--6--3~-----6~----1~----3--|
    E|-3--6-------------------------------|
    
    chorus
    G|----------------------------|
    D|--------------------4-55555-|
    A|-1---1-3-1---1-3------------|
    E|---3-------1----33----------|
    
    verse.
    G|--------------|
    D|--------------|
    A|----6--4h5----|
    E|-3---6-----4--|
    
    second…
  • G
    
    Cm      G
    She's thunderstorms,
    Cm             Am
    Lying on her front,
    D              Am
    Up against the wall,
    D               G 
    She's thunderstorms.
    
    Cm G G
    
    G	   Em          Am	        D
    I've been feeling…
  • A                     C#m           F#m
    I wish you would have smiled in the bakery
                      Bm
    Or sat on a tatty settee
    Dm
    At some mutual friend's gathering
    
    A                        C#m
    And the more you…
  • Guitar 1 
    
    4 times: 
    E||------------------------|------------------------| 
    B||------------------------|------------------------| 
    G||------------------------|------------------------| 
    D||----------0-------------|--0----------2---0------|…
  • INTRO :
    B5 / D5,G5 / D5,G5 / x3
    B5 / C#5 
    I--------------------------------------------------I
    I--------------------------------------------------I
    I--------------------------------------------------I
    I-9-7------9-7-------------------------------------I
    I-----9--------9-----------------------------------I
    I-------7--------7---------------------------------I…
  • Intro:
    G----------|
    D---0-0----|
    A--2-2-2---|  X4
    E-3--------|
    ----PM-----|
    
    Verse:
    G----------|
    D---0-0----|
    A--2-2-2---|  X10
    E-3--------|
    ----PM-----|
    
    Chorus:
    Intro:
    G-----------------------------------------|
    D-----------------------------------------|
    A---------------------2222-2222-2222-2222-|…
  • Intro(00:03):
    *Play 5 on the A string untill the main riff kicks in*
    
    Main Riff:
    G|-------------------------|
    D|-------------5--5555555--|
    A|-------5-6-7-------------|x4
    E|7--7-7-------------------|
    
    Verse:
    G|------------------------------------|
    D|------------------------5--5555555--|
    A|------------------5-6-7-------------|x4
    E|7~~~~~~~~~~7--7-7-------------------|
    
    G|-------------------------|
    D|-------------5--5555555--|
    A|-------5-6-7-------------|x3
    E|7--7-7-------------------|
    
    Chorus:
    G|-----------------------------------------------------------------------|
    D|-----------------------------------------------------------------------|
    A|5--5--5--5--5--5--5-7-5-7----------------------------------------------|
    E|--------------------------7--7--7--7--7--7--5-7-5-7--3--3--3--3--/12~--|
    
    
    G|-------------------------|
    D|-------------5--5555555--|
    A|-------5-6-7-------------|x2
    E|7--7-7-------------------|
    Verse:
    G|------------------------------------|
    D|------------------------5--5555555--|
    A|------------------5-6-7-------------|x4
    E|7~~~~~~~~~~7--7-7-------------------|
    
    G|-------------------------|
    D|-------------5--5555555--|
    A|-------5-6-7-------------|x3
    E|7--7-7-------------------|
    
    Chorus:
    G|-----------------------------------------------------------------------|
    D|-----------------------------------------------------------------------|
    A|5--5--5--5--5--5--5-7-5-7----------------------------------------------|
    E|--------------------------7--7--7--7--7--7--5-7-5-7--3--3--3--3--/12~--|
    
    Bridge:
    G|-----
    D|-----
    A|-----
    E|7~~--
    
    Outro:
    G|-------------------------|
    D|-------------5--5555555--|
    A|-------5-6-7-------------|x3
    E|7--7-7-------------------|
    
    G|-----------------|
    D|-------------5X--|
    A|-------5-6-7-----|
    E|7--7-7-----------|…
  • You probably couldn't see
    Still Take You Home
    dancing shoes
    Fake Tales Of San Francisco
    I Bet You Look Good On The Dancefloor
    A Certain Romance
    Riot Van
    when the sun goes down (Scummy)
    the view from the afternoon
    Red…
  • G|-----------------|
    D|-----------------|
    A|8---7---6---5----|
    E|--7---6---5---3--|
    
    G|------------------------|
    D|------------------------|
    A|------------------------|
    E|5-6-7-5-2---3-5-6-5-0---|
    
    G|---------------------------------|
    D|---------------------------------|
    A|--0-2-3-----7-7-6-5-------0-2-3--|
    E|3-----------------------3--------|
    
    G|-------------------------------|…
  • Tuning: Standard
    
    play 4 times
    e|--------------------------------------------------------------------------------|
    B|--------------------------------------------------------------------------------|
    G|--------------------------------------------------------------------------------|
    D|-----------0--------------------2--0--------------------------------------------|
    A|------2-3----3--2--3--0--2--3--------3-2----------------------------------------|
    E|--------------------------------------------------------------------------------|
    
    play…
  • Verse 1:
     G                         B                                   C
    So you're on the prowl wondering whether she left already or not 
     Am                            D
    Leather jacket, collar popped like antena…
Наверх