Аккорды «B. B. King»

B. B. King
B. B. King - американский блюзовый гитарист, певец, автор песен, которого поклонники именуют королём блюза.По мнению одного из критиков, «Би Би Кинг представил нам утонченный стиль гитарного соло, основанный на плавном бендинге и блестящем вибрато, повлиявший практически на каждого последователя электрогитарного блюза. По результатам проведенного в 2003 году журналом Rolling Stone опроса Би Би Кинг находится на 3 месте в списке «100 лучших гитаристов всех времен B. B. King - американский блюзовый гитарист, певец, автор песен, которого поклонники именуют королём блюза.По мнению одного из критиков, «Би Би Кинг представил нам утонченный стиль гитарного соло, основанный на плавном бендинге и блестящем вибрато, повлиявший практически на каждого последователя электрогитарного блюза. По результатам проведенного в 2003 году журналом Rolling Stone опроса Би Би Кинг находится на 3 месте в списке «100 лучших гитаристов всех времен Скрыть...
Популярные аккорды B. B. King:
алфавиту | просмотрам | случайно
  • (w/clean tone)
          E|---10B1/4-7----------------------------------------------7--
          B|------------10-----------------------------------------7----
          G|---------------9Bfull-7-7-9----7B1/4-----------7-9H(9)------…
  • Intro: G G Em Em C D G G  
     
     G                        Em
    When the night has come and the land is dark  
             C             D              G
    and the moon is the only light we'll see  
     G…
  • I must have looked in over 20 guitar tab sites and couldn't find any trace of
    this song anywhere, so I got my piano tutor to chord it for me, she said it went like this:
    
    INTRO:
    Verse played once with just piano and…
  • ----------------------------------------------------------------------
    --------15---17b19--15--------13--------------------------------------
    -14-16---------------------------14--12-------------------------------
    ----------------------------------------15--12------12----------------
    ------------------------------------------------15--------------------
    ----------------------------------------------------------------------
    
    
    ------------------------------------------------22--------------------
    ---15-17----15----------15-15----17b19---------------17b19-17-15------
    16-------16----------16------------------------------------------16---
    ----------------------------------------------------------------------
    ----------------------------------------------------------------------
    ----------------------------------------------------------------------
    
    
    --------------------------15--15--15--15-17---------------------------
    15---------15--15--17b18--------------------17b18--15----17b18-----15-
    ----------------------------------------------------------------16----
    ----------------------------------------------------------------------
    ----------------------------------------------------------------------
    ----------------------------------------------------------------------
    
    
    ---------------------------------17b19--17---------15-----------------
    17--15---15h17p15--------15-17-15---------17b19------19p15--15--------
    --16-------------16----16---------------------------------16----------
    ----------------------------------------------------------------------
    ----------------------------------------------------------------------
    ----------------------------------------------------------------------
    
    
    
    ----------------------------------------------------------------------
    ---17b(19)b17b(19)------15------12--------13--------------------------
    -16---------------------------------------14--------14----------------
    -------------------------------------15------15--------15p12--12----14
    -----------------------------------------------------------------16---
    ----------------------------------------------------------------------
    
    
    -----------13---15--15b17---15p13-----10------------------------------
    15---15--------------------------15------13p10--------10-----------10-
    ----------------------------------------------12---------10h12p10-----
    ----------------------------------------------------------------------
    ----------------------------------------------------------------------
    ----------------------------------------------------------------------
    
    
    -----------17b20-----r17-------------------10-------------------------
    --15-17-15--------------17b18-15---17b19--------13-10--10-------------
    16---------------------------------------------------12--10------9----
    -----------------------------------------------------------12-12---12-
    ----------------------------------------------------------------------
    ----------------------------------------------------------------------
    
    
    When…
Наверх