Аккорды «Babasónicos»

Babasónicos
Babasónicos - аргентинская рок-группа, образованная в начале 1990-ых. Cтала одной из основных андерграунд-команд конца 90-ых. Название является синтезом от "Sai Baba" (индийский гуру) и от "The Jetsons" (по-испански - "Los Supersónicos"). Лид-вокалист Adrián "Dárgelos" Rodríguez и клавишник Diego "Uma-T" Tuñón изначально решили играть в стиле "новой волны" (так называемый new wave), совершенно не перекликающемся с аргентинской музыкой.… Читать полностью... Babasónicos - аргентинская рок-группа, образованная в начале 1990-ых. Cтала одной из основных андерграунд-команд конца 90-ых. Название является синтезом от "Sai Baba" (индийский гуру) и от "The Jetsons" (по-испански - "Los Supersónicos"). Лид-вокалист Adrián "Dárgelos" Rodríguez и клавишник Diego "Uma-T" Tuñón изначально решили играть в стиле "новой волны" (так называемый new wave), совершенно не перекликающемся с аргентинской музыкой. Также в группу входят: Diego "Uma" Rodríguez (гитарист, вокалист) Diego "Panza" Castellano (ударник), Mariano "Roger" Domínguez (гитарист), и недавно погибший Gabriel "Gabo" Manelli (басист). (На официальном сайте сообщение о смерти Габриеля от его давней болезни появилось12 января 2008) Несмотря на то, что группа никогда не придерживалась какого-то одного направления и всегда была открыта для экспериментов, их иногда упрекают в излишней коммерциализации. Такие альбомы как Infame (2003) и Anoche (2005) доказывают, что они действительно стали популярны и имеют обширную аудиторию. Дискография: Pasto (1992) Trance Zomba (1994) Dopádromo (1996) Babasónica (1997) Miami (1999) Jessico (2001) Infame (2003) Anoche (2005) Mucho (2008) Скрыть...
Популярные аккорды Babasónicos:
алфавиту | просмотрам | случайно
  • Intro:
    
    riff:1
    e|--------------------------------------------------------------------------|
    B|--------------------------------------------------------------------------|
    G|--------------------------------7-/-8---7------7-----------------5--------|
    D|----5-/-7---------5-/-7----(0)--7-/-8---7------7(0)--5-5-x-5-5---5--7-7-7-|
    A|(0)-5-/-7-----(0)-5-/-7-----0---5-/-6---5------5-0---5-5-x-5-5---3--7-7-7-|
    E|-0--3-/-5------0--3-/-7------------------------------3-3-x-3-3-0----5-5-5-|
    
    riff:2
    
    e|--------------------------------------------------------------------------|
    B|--------------------------------------------------------------------------|
    G|--------------------------------7-/-8---7------7-----------------5--------|
    D|----5-/-7---------5-/-7----(0)--7-/-8---7------7(0)--5-5-x-5-5---5--------|
    A|(0)-5-/-7-----(0)-5-/-7-----0---5-/-6---5------5-0---5-5-x-5-5---3--------|
    E|-0--3-/-5------0--3-/-7------------------------------3-3-x-3-3-0----------|
    
    
    e|---------------|
    B|---------------|
    G|---------------|
    D|-3-3-x--5------|
    A|-3-3-x--5------|
    E|-1-1-x--3------|
    
    riff:…
  • Intro: C7 / Fmaj7 / C / Fmaj7 / C
    
    Am                  
    Sin piedad dejas атrбs
        C                  Fmaj7   Em
    un sйquiто de vana idоlатrна
    Am                
    sos tan espectacular
         C                    Fmaj7  
    que…
  • C      G      em         C        G        em
    e---------------------------------------------------------|
    B----------------------------------1----------------------|
    G------0-------------------------0----------0-------------|
    D----2--------0------0…
  • E---------------------------------------------------->
    B---------------------------------------------------->
    G---------------------------------------------------->
    D---------------------------------------------------->
    A----------------7----7--9/12--9----SIGUE…
  • Em - D - C - B - A - C - B - Em
    
    Em                    D           C
    ella va a salir esta noche dejando a atras
        B
    su vanidad
    A                       C
    quiere gustar y ser gustada
                 B
    sentirse deseada…
Наверх