Аккорды «Bachelor Girl»

Bachelor Girl
Сочетая инструментальные, вокальные и композиторские таланты Джеймса Роша и Тани Доко, австралийский дуэт Bachelor Girl, несмотря на совместную работу в течение многих предшествующих лет, отметил свой публичный дебют в конце мая 1998 г., когда сингл ‘Buses and Trains’ был выпущен для радио в Австралии, как первый сингл их дебютного альбома "Waiting for the Day". Причудливый и, несомненно, броский ‘Buses and Trains’ был первым синглом от дуэта, который был номинирован как Лучший Новый Талант на Aria… Читать полностью... Сочетая инструментальные, вокальные и композиторские таланты Джеймса Роша и Тани Доко, австралийский дуэт Bachelor Girl, несмотря на совместную работу в течение многих предшествующих лет, отметил свой публичный дебют в конце мая 1998 г., когда сингл ‘Buses and Trains’ был выпущен для радио в Австралии, как первый сингл их дебютного альбома "Waiting for the Day". Причудливый и, несомненно, броский ‘Buses and Trains’ был первым синглом от дуэта, который был номинирован как Лучший Новый Талант на Aria (Австралийская Ассоциация звукозаписывающих компаний) в прошлом году . В звучании Bachelor Girl немного попа, рока, соула, и ритм-энд-блюза - все это смесь музыкальных течений, повлиявших на участников. Джеймс говорит, что он был заядлым слушателем американского рока и причудливого британского попа, в то время как Таня слушала олдскульный соул и R & B. Эти двое впервые встретились семь лет назад, когда Джеймс нанял Таню спеть демо, которую он записывал. Джеймс рассказывает: "Я работал музыкантом. Я играл где угодно, чтобы заработать на жизнь - свадьбы, концерты в барах, кино и телевидении, записи демок. Работая с Таней, мы хорошо проводили время, поэтому решили работать вместе." На тот момент Тане было 18 лет и она училась в Мельбурнском университете. "Я готовилась стать бакалавром в области психологии и криминологии, но моей главной страстью была музыка. Это было воплощением мечты, когда Джеймс позвонил и сказал " давай начнем работать и писать вместе.' " - говорит Таня. Они работали вместе в течение следующих четырех лет, пока Таня заканчивала бакалавриат искусств. Затем, в 1997 г., Джеймс и Таня серьезно потрудились и записали демо-CD. Большинство композиций альбома были записаны и смикшированы Джеймсом и Таней в их студии, находившейся в доме Джеймса. Джеймс играл на клавишных в этом альбоме, также он вместе с Таней исполнил все вокальные партии. Bachelor Girl закрепили свой успех в Австралии, выступив вместе с Натали Имбрулья, также они были со-хэдлайнерами в Австралийском туре с The Goo Goo Dolls. Bachelor Girl недавно завершили выступления с the Eurythmics на the Peace Tour. Их дебютный альбом 'Waiting For The Day' был выпущен в Австралии в ноябре 1998 г. и стал "платиновым". Их первый сингл, 'Buses and Trains', также стал "платиновым", проведя 33 недели в чартах Australia's ARIA и достигнув номера 4. Он был также признан "песней года" согласно the Australasian Performing Right Association. 'Treat Me Good' и 'Lucky Me' остановились в Топ-40 на чартах ARIA. Скрыть...
Популярные аккорды Bachelor Girl:
алфавиту | просмотрам | случайно
  • Chords: B	x2444x		C#m	x46654
    	E	022100		F#m	244222
    	G#m	466444		Asus2	x02200
    	A	x02220
    
    
    Chorus:	|B  E	|G#m  A	|Asus2 B |C#m	| x2
    
    
    On the Asus2, Hammer on the C# (forms an A) once every two beats
    And on the C#m do the same…
  • Chords:	Em	022000		C#m	x46654
    	F	133211		B	x2444x
    	Am	x02210		A	x02220
    	Dm	xx0231		Bm7	x24232
    	E7	020100		D	xx0232
    	C	x32010		Cmaj7	x32000
    
    Verse:	|Em	|F	|Em	|F	|
    
    	|Am	|F	|Am	|Dm  E7 |
    
          Em
    	I know that you feel it…
  • Chords:
    	Em	022000		Dsus4	 xx0233
    	D	xx0232		Csus2	 x30033
    	Cmaj7	x32000		 (no 3rd)
    	G	320033		Bbsus2	 x13311
    	C	x32033		Em7	 022033
    	G/B	x20033		Am	 x02210
    
    Intro
    
    
    	Em	       D   Cmaj7	   D	Em 	      D
    
    e----7-|-7--5-5-----------|-----------------7-|-7--5-5-----------|
    b------|---------8-8--7-7-|-5-5--5------------|---------8-8--7-7-|
    g------|------------------|--------7----------|------------------|
    d------|------------------|-------------------|------------------|
    a------|------------------|-------------------|------------------|
    e------|------------------|-------------------|------------------|…
  • Chords:	Em	022000		A	x02220
    	D	xx0232		G	320003
    	C	x32010
    
    
    Intro:
    
       Em		   Em
    e----------------|----------------|
    b----------------|----------------|
    g-------2-----0--|-------2-----0--|
    d---/4-----2-----|---/4-----2-----|
    a----------------|----------------|
    e----------------|----------------|
    
    Verse:…
  • INTRO: Em = D - C   D - Em - D - C
    
    
    G 	      C         G             D 
    I might be a little concerned with my hair
    G 	      C         G             D 
    I might need comfort, more than my share
    Em           		 C…
  • Chords:
    	A	x02220		Em	022000
    	F6	xx3232		Dm	xx0231
    	G	320003		F	xx3211
    	Fmaj7	xx3210		Bbmaj7	xx3232
    	F#m	122111		D	xx0232
    	C#m	x46654		E	022100
    
    
    Intro	|A	|F6	|G	|A	|
    
    	|A	|F6	|G    (let it ring for 2 bars)
    
    Verse	|A	|F6	|G	|A	|
    
    	|A	|F6	|G	|A	|
    
    	|Fmaj7	|Em	|Dm	|Bbmaj7	|
    
    	|F	|G	|A	|A	|…
  • Verse:
         D       A               G
    e-----------------------------------------------------|
    b---3-------2---------------------3-----------3-------|
    g------2-------2------2--------0-----0-----0-----0----|	   x4
    d---4-------2------2--------s4----------4-------------|
    a-----------------------------------------------------|
    e-----------------------------------------------------|
    
    Chorus:…
  • Chords: B	x24442		E	022100
    	Bsus4	x24452		C#m	x46654
    	G#m	466444		B/D#	xxx877
    	F#	244322		D#m	x68876
    	F#sus4	244422		A	x02220
    
    Intro: |B	|Bsus4	|x4
    
    Verse: |B	|Bsus4	|B	|Bsus4	|
    
           |B	|Bsus4	|G#m	|F#	|
    
           |B	|Bsus4	|B	|Bsus4	|…
  • Chords: G	320003		Esus4	022200
    	D	xx0232		F#m	244222
    	A	x02220		Bsus2	224422
    	Asus2	x02200		B	x2444x
    	Asus4	x02230		E	022100
    
    
    Intro:
    
      G	 D	A		 G     D		A
    e------------|----------------|------------|---------------|
    b---8--7-5---|-------5------5-|---8--7-5---|-------5---10--|
    g----------7-|--6--7------7---|----------7-|--6--7---------|
    d------------|---------7------|------------|---------------|
    a------------|----------------|------------|---------------|
    e------------|----------------|------------|---------------|
    
    
    Verse:…
  • Chorus:	B	x13331		F#7sus	242422
    	G#m	466444		E	022100
    	F#	244322		A	x02220
    	C#m	x46654		F#m	x9111189
    	D#m	x68876		Bm	799777
    	Em	x79987		A7sus	575755
    
    Verse: |B	|G#m	|F#	|C#m	| x2
    
    		B
    	Don't use me
    
    		G#m
    	Don't tease me
    
    		F#
    	Don't…
  • Chords:	Dm	557765
    	F	133211
    	G	x55033
    	Em	x79987
    	F*	x 8 10 10 10 8
    	G*	355433
    	B	799877
    
    
    Intro/Verse 1:
    
    
    e----------------|--------------------|
    b----------------|--------------------|
    g--/4-4---/2-2---|--0-0------0--2--0--|
    d--/5-5---/3-3---|--0-0---3--0--3--0--|	x3
    a----------------|--------3-----------|
    e----------------|--------------------|
    
    
    e----------------|--------------------|
    b----------------|---------4--4--4----|
    g--/4-4---/2-2---|--0-0----4--4--4----|
    d--/5-5---/3-3---|--0-0----2--2--2----|
    a----------------|--------------------|
    e----------------|--------------------|
    
    verse…
Наверх