Аккорды «Bad Brains»

Bad Brains
Bad Brains - растафарианская американская хардкор-группа, была создана в Вашингтоне (округ Колумбия) в 1977 году. Bad Brains считаются пионерами хардкор-панка (хотя музыканты не называли свою музыку такими словами), однако их музыкальные эксперименты прошли гораздо дальше - в глубочайший рэггей. Bad Brains являются растафарианцами. Первоначально создана как фьюжн-группа Mind Power. Bad Brains выработали очень быстрый и интенсивный панк-рок звук, он был одновременно и сложнее и быстрее, чем то, что… Читать полностью... Bad Brains - растафарианская американская хардкор-группа, была создана в Вашингтоне (округ Колумбия) в 1977 году. Bad Brains считаются пионерами хардкор-панка (хотя музыканты не называли свою музыку такими словами), однако их музыкальные эксперименты прошли гораздо дальше - в глубочайший рэггей. Bad Brains являются растафарианцами. Первоначально создана как фьюжн-группа Mind Power. Bad Brains выработали очень быстрый и интенсивный панк-рок звук, он был одновременно и сложнее и быстрее, чем то, что играли их современники-панки. Bad Brains несколько раз разваливались и снова собирались, иногда в несколько ином составе. Но классический состав группы - это вокалист H.R., гитарист Dr. Know, басист Darryl Jenifer, барабанщик Earl Hudson. Bad Brains занимают 99 строку в списке величайших хард-рок исполнителей музыкального телеканала VH1. Beastie Boys были большими любителями Bad Brains и поэтому выбрали себе такое название (тоже B.B.). Скрыть...
Популярные аккорды Bad Brains:
алфавиту | просмотрам | случайно
  • Riff 1
    G|-------------------------------------|
    D|-------------------------------------|
    A|-3-3-3-33-6-6-6-66-------------------|
    E|-------------------3-3-3-33-3-3-3-33-|
    
    Riff 2 here r the notes, I'm 2 lazy to count them,…
  • Tuning: Normal Tuning
    
    riff 1
    
    e|---------------------------------------------------------------------------|
    B|---------------------------------------------------------------------------|
    G|---------------------------------------------------------------------------|
    D|---------------------------------------------------------------------------|
    A|---------------------------------------------------------------------------|
    E|-13-13-13-13-13-13-13-13-10-9-10-9-----------------------------------------|
    
    repeat…
  • G:|-------------------------------------------------|
    D:|-------------------------------------------------|
    A:|---7-7-7-7-7--7----------------------------------|
    E:|-----------------0>------------------------------|
    
    G:|---------------------------------1--------|
    D:|----------------------2-2-2-2-2----2-2-2--|…
  • Bass
    
    G|-----------------------------|
    D|-----------------------------|
    A|--------10-10-10---------10--|
    E|---8--8-----------10-10------|
  • Notes:
    ~ - Let Ring
    x - Mute note
                    
    G|------------------------------------|
    D|--------------------------------2~--|
    A|------------------------------------|
    E|--5~--55-5--2-3~-xxxx-2~---3-2------|
    
    G|------------------------------------|
    D|------------------------------2~----|
    A|------------------------------------|
    E|--5~----2-3~--xxxx-2~---3-2---------|…
  • Intro
    
    e--------------------------------------------------------------------------|
    B--------------------------------------------------------------------------|
    G--------------10--------9-------------------------------------------------|
    D----7---------10--------9-------------------------------------------------|
    A----7---------8---------7-------------------------------------------------|
    E----5---------------------------------------------------------------------|
    
    Verse
    
    e---5--5--x--5------------------5--5--x--5----------------------------|
    B---5--5--x--5-----9--9--x--9---7--7--x--7-------5--------------------|
    G---6--6--x--6-----8--8--x--8---7--7--x--7-------7--9-----------------|
    D---7--7--x--7-----6--6--x--6---7--7--x--7----9--9--7-----------------|
    A---------------------------------------------7-----------------------|
    E---------------------------------------------------------------------|
    
    Chorus
    
    e---------------------------------------------------------------------|
    B---------------------------------------------------------------------|
    G-----------------------------4-4-4-4---------------------------------|
    D--4--4-----4--4-----4--4-----4-4-4-4---------------------------------|
    A--4--4-----4--4-----4--4-----2-2-2-2---------------------------------|
    E--2--2-----2--2-----2--2---------------------------------------------|…
  • Intro
    
    e-------8--7-8------8--7-8----10----8--7-8----9----8--7-8-------------|
    B--10-----------8-----------------------------------------------------|
    G---------------------------------------------------------------------|
    D---------------------------------------------------------------------|
    A---------------------------------------------------------------------|
    E---------------------------------------------------------------------|
    
    e---------------------------------------------------------------------|
    B--10---10h11p10---8--10----------------------------------------------|
    G---------------------------------------------------------------------|
    D-----------------------------------7---------------------------------|
    A-----------------------------------7---------------------------------|
    E-----------------------------------5---------------------------------|
    
    
    e---------------------------------------------------------------------|
    B---------------------------------------------------------------------|
    G-----------------------------9---------------------------------------|
    D----7-7-7-7-7-7-7-7-7-7-7-7--9---------------------------------------|
    A----7-7-7-7-7-7-7-7-7-5-5-5--7---------------------------------------|
    E----5-5-5-5-5-5-5-5-5-5-5-5------------------------------------------|
    
    Verse
    
    e---------------------------------------------------------------------|
    B---------------------------------------------------------------------|
    G-----------------------------------6-6-6-6-6-6-6-6-6-7-7-7-7-7-7-7---|
    D--7-7-7-7-7-7-7-7-6-6-6-6-6-6-6-6--6-6-6-6-6-6-6-6-7-7-7-7-7-7-7-7---|
    A--7-7-7-7-7-7-7-7-6-6-6-6-6-6-6-6--4-4-4-4-4-4-4-4-5-5-5-5-5-5-5-5---|
    E--5-5-5-5-5-5-5-5-4-4-4-4-4-4-4-4------------------------------------|
    
    
    Chorus
    
    e---------------------------------------------------------------------|
    B---------------------------------------------------------------------|
    G---------------------------------------------------------------------|
    D---7--7----5--5----3--3----------------------------------------------|
    A---7--7----5--5----3--3----------------------------------------------|
    E---5--5----3--3----1--1----------------------------------------------|
    
    Solo
    
    e---13b-------------------12~~~~~~~~~-------------12~~~~~~~~~---------|
    B--------12-11--12~~~~~~~-------------12~~~~~~~~~---------------------|
    G---------------------------------------------------------------------|
    D---------------------------------------------------------------------|
    A---------------------------------------------------------------------|
    E---------------------------------------------------------------------|…
  • Notes:
    ~ - Let Ring
    x - Muted Note
    
    Verse 1:
    G|-----------------------------------------|
    D|-----------------------------------------|
    A|--2-2-2-2-2-2-5-5-5-5-5-5----------------|
    E|--------------------------3-3-3-3-3-3-3--|…
  • Tuning: E-A-D-G
    
    Notes:
    
     - Slide Down
    ~ - Let Ring
    
    
    Verse 1:
    G|------------------------------------------------------|
    D|------------------------------------------------------|
    A|------------------------------------------------------|
    E|--52--2--2-2-2---53--5-4-5--5-4-4-7--7-6-7-8-7-85--|…
  • Chords:
    
    C5   (x355xx)  D5  (x577xx)
    A5   (577xxx)  E5  (x799xx)
    G5   (355xxx)  F2  (x8-10-10xx)
    F#5  (244xxx)
    F5   (133xxx)
    
    
    There are three parts to this song, you can figure out which one goes where.
    
    Part 1:
    
    E|--------------------------------------------|
    B|--------------------------------------------|
    G|-5-5-5-5-5-5--9-9-10-10-10-10-10-10-10-10---|
    D|-5-5-5-5-5-5--9-9-10-10-10-10-10-10-10-10---|
    A|-3-3-3-3-3-3--7-7--8--8--8--8--8--8--8--8---|
    E|--------------------------------------------|
    
    Part…
  • Bass
    
    G|----------------------------------------------|
    D|---10--------10------------------------12-----|
    A|---------12------12--10-------------12--------|
    E|-------------------------12----10-------------|
    
Наверх