Аккорды «Bad Company»

Bad Company
"Bad Company" являются одной из первых супергрупп мира: Роджерс и Кёрк прославились во "Free", Ральфс - в "Mott The Hoople", а Баррел - в "King Crimson". Поэтому не случайно, что музыканты с самого начала карьеры оказались под опекой Питера Гранта, менеджера "Led Zeppelin". Уже дебютный альбом "Bad Company" попал в британский Топ-3, и до конца 70-х группа пользовалась стабильной популярностью у слушателей. Стиль группы представлял собой блюзовый хард-рок с ярко выраженной мелодичной поп-составляющей.… Читать полностью... "Bad Company" являются одной из первых супергрупп мира: Роджерс и Кёрк прославились во "Free", Ральфс - в "Mott The Hoople", а Баррел - в "King Crimson". Поэтому не случайно, что музыканты с самого начала карьеры оказались под опекой Питера Гранта, менеджера "Led Zeppelin". Уже дебютный альбом "Bad Company" попал в британский Топ-3, и до конца 70-х группа пользовалась стабильной популярностью у слушателей. Стиль группы представлял собой блюзовый хард-рок с ярко выраженной мелодичной поп-составляющей. Пика развития Bad Company достигли в 1975 г., когда Роджерс и Ральфс сочинили наиболее известную композицию группы "Feel Like Makin' Love", красивую балладу с жестким гитарным риффом. Как и многие хард-роковые группы, Bad Company не смогли пережить начало 80-х и в июле 1983 г. было объявлено о распаде коллектива. Сольная карьера участников Bad Company не была громкой. Роджерс в 1985-1986 годах выступал в "The Firm" с Джимми Пейджем, Ральфс выпустил в 1985 г. сольный диск, а Кёрк и Баррел создали собственные проекты. Поэтому неудивительно, что в 1986-м Bad Company возродились. Роджерс не захотел начинать сначала, и новым вокалистом группы стал Брайан Хау, ранее выступавший в группе Теда Наджента. Реформированные Bad Company смогли утвердиться на мировой сцене: ориентируясь на американский рынок, музыканты записали в 1990-м очень удачный в коммерческом плане альбом "Holy Water". Большими хитами стали композиции "If You Needed Somebody" и "Walk Through Fire". Диск следующего года почти автоматически обрел "золотой" статус, но это был последний громкий успех группы. Падение в мире интереса к "старой" гитарной музыке в первой половине 90-х годов отправило Bad Company на задворки музыкальной сцены. В 1998-м Bad Company воссоединились в классическом составе, провели турне и даже сочинили новые композиции, вошедшие в антологию 1999 г. Последовал реюнион-тур, но по его окончании ушли Ральфс и Баррелл. В 2002-м вышел концертник "Merchant Of Cool", записанный при участии Дэвида Колвелла и Джаза Лочри. Роджерс впоследствии занялся другими делами, а Bad Company время от времени выступали во главе с Хартом. Скрыть...
Популярные аккорды Bad Company:
алфавиту | просмотрам | случайно
  • Intro
     (each note is four beats) 
    g|------------------------------------------|
    d|------------------------------------------|
    a|-0--------------------0-------------------|
    e|------------------------------------------|…
  • e|------------------|-------------------------------------|
    B|------------------|-------------------------------------|
    G|------------------|-------------------------------------|
    D|------------------|-------------------------------------|
    A|-1-4-6--9-8-6-4-1-|-1-4-6--9-8-4-8-6---3----------------|---…
  • intro
        v  v    ^  v  ^  v  ^ v ^ v   v   v  v   ^  v  ^  v   ^ v ^ v    v
    e|--14-14--12-12-12-12--7-7-7-7h8-7-|-14-14--12-12-12-12--7-7-7-7h8--2-|
    B|--15-15--13-13-13-13--8-8-8-8---8-|-15-15--13-13-13-13--8-8-8-8----3-|
    G|--14-14--12-12-12-12--7-7-7-7---7-|-14-14--12-12-12-12--7-7-7-7----2-|
    D|----------------------------------|----------------------------------|
    A|----------------------------------|----------------------------------|
    E|----------------------------------|----------------------------------|
    
    verse:
    D…
  • Tuning:EBGDAe
    
    e|-----------|
    B|-----------|
    G|-----------| x5 For the Intro
    D|3-5-x-3-5--|
    A|3-5-x-3-5--|
    E|1-3-x-1-3--|
      The sky        Is burnin'     I believe my souls on fi--re   
    e|-------------------------------------------------------------------------|
    B|-------------------------------------------------------------------------|
    G|------------------3-5-x-3-5--------5-------3-----------------------------|
    D|----3-5-x-3-5-----3-5-x-3-5--------5-------3--------3-5-x-3-5------------/
    A|----3-5-x-3-5-----1-3-x-1-3--------3-------1--------3-5-x-3-5------------|
    E|----1-3-x-1-3---------------------------------------1-3-x-1-3------------|…
  • Intro: (x2)
       C     Bb     F       Bb F
    E------------------------------|
    B--5-----3-3----10------3--10--|
    G--5-----3-3----10------3--10--|
    D--5-----3-3----10------3--10--|
    A--3-----1-1----8-------1--8---|
    E------------------------------|…
  • Intro: (sometimes I skip the hammer-on/pull-off part)
    
    -9-h10p9------------3--2--0--2---------------|
    -10-10-10-----------3--3--3--3---------------|
    -9---9-9----2h3p2---2--2--2--2---------------|
    ------------2h4p2---0--0--0--0---------------|
    ---------------------------------------------|
    ---------------------------------------------|
    
    Alternate…
Наверх