Аккорды «Балабама»

Балабама
20 февраля 2007 года образовалась группа Caerse de Risa. Название группы в переводе с испанского языка означает «хохотать до упаду». 22 мая 2009 года группа приняла решение переименоваться в группу "Балабама". Сам коллектив определяет свой стиль, как смесь регги, ска и фанка. На данный момент группа находится на стадии записи альбома, где будет приблизительно 15 треков, которые всегда можно услышать на концертах. За свое существование группа выступала на таких фестивалях, как «Вдох», «Индюшата… Читать полностью... 20 февраля 2007 года образовалась группа Caerse de Risa. Название группы в переводе с испанского языка означает «хохотать до упаду». 22 мая 2009 года группа приняла решение переименоваться в группу "Балабама". Сам коллектив определяет свой стиль, как смесь регги, ска и фанка. На данный момент группа находится на стадии записи альбома, где будет приблизительно 15 треков, которые всегда можно услышать на концертах. За свое существование группа выступала на таких фестивалях, как «Вдох», «Индюшата 2008», где выиграла специальный приз от интернет портала MySpace; отыграла сольные концерты в клубах «Китайский Летчик Джао Да», «PodМосковье», «проект ОГИ», «Штопор», так же принимала участие в съемках передач и давала интервью на таких каналах, как СТС, Столица, Столица ЮЗ. В ближайших планах группы – выход в ротации радио и участие в летних музыкальных фестивалях. Состав группы: Тихонов Дмитрий - вокал Амельченко Максим - ритм-гитара, вокал Самойлов Андрей – бас-гитара Гурьянов Арсений- ударные Хитман Алексей - электро-баян Скрыть...

Теги:

Популярные аккорды Балабама:
алфавиту | просмотрам | случайно
  • Вступление: Em - C - G - B7
    
    Em
    Под запретом шлю приветы, 
    C
    Без ответа - меня нету,
    G                B7
    Как тебя найти, уже не считаю кометы.
    Em
    А где ты, где ты, где ты?
    C                   G…
  • Проигрыш:
    B||--10--6--8---10--6--8---10--6--8--8-6-8-10-11-8-10----8--------|
    G||---------------------------------------------------10---9-10-7-|
    
    Вся песня играется так:
    Bb C
    E||-------------------1-----|-------------------0-----|
    B||-----------3----------3--|-----------1----------1--|
    G||--------3-------3--------|--------0-------0--------|
    D||-----3-------------------|-----2-------------------|
    A||--1----------------------|--3----------------------|
    E||-------------------------|-------------------------|
    
    A…
  • Intro: Em D Em C
           Em D G Em
           Em D Em C - x3
           Em D Em Em
    
    Em  D   Em   C
    Заблудился на пути,
    И куда не знаешь идти,
    Всё равно увидишь знак,
    И поймешь, что всё будет так.
    
    Ты не можешь всё понять,
    И…
  • Gm F A# C - 8 раз
    
    Gm       F   A#       C
    Машина, квартира, красивый и загородный дом,
    Большой холодильник, в котором еды не меренно,
    Удобное кресло, бассейн, камин и вся фигня
    Так жить интересно, но это не про меня
    
    Gm…
  • Gm                    E
    Люди, дайте мне свободы, отпустите меня,
    Я не ел уже полгода, накормите меня,
    не лентяй я и не лодырь, у меня нету прав,
    Я обычный очень добрый, очень скромный жираф.
    
    Я обычный, очень добрый,…
  • Em     Cadd9       Bm7    Am7        Em     Cadd9      Bm7    Am7 
     
    E||--2---3-x--------------|------2-x--------------|--2---3-х-------------|---------------------||
    B||------0-x--3------3--x-|--3---3-x--1------1--x-|------0-х--3-----3--x-|--3---3----1---------||
    G||------0-x---------0--x-|------2-x---------0--x-|------0-x--------0--x-|--2---2----0---------||
    D||------------------2--x-|------------------2--x-|-----------------2--x-|-(4)-(4)-------------||
    A||-----------3-----------|--2--------0-----------|-----------3----------|--2---2----0---------||
    E||--0--------------------|-----------------------|--0-------------------|---------------------||
    
    Раскалённый…
Наверх