Аккорды «BBMak»

BBMak
Кристиан и Стэ играют на гитарах, а Марк на охотничьем ирландском рожке и волынке. Что касается вокала, музыки и слов, то это продукт совместного творчества. Первый хит BBMak "Back Here" в британских хит-парадах занял всего лишь 37-е место. Разочарованию музыкантов не было границ. Затем ребята уехали покорять Америку. И, как оказалось, не зря. Там "Back Here" удерживался в "двадцатке" лучших песен в течение 3 месяцев. Этот сингл был даже номинирован на награду Rаdio Music Awards как самую часто… Читать полностью... Кристиан и Стэ играют на гитарах, а Марк на охотничьем ирландском рожке и волынке. Что касается вокала, музыки и слов, то это продукт совместного творчества. Первый хит BBMak "Back Here" в британских хит-парадах занял всего лишь 37-е место. Разочарованию музыкантов не было границ. Затем ребята уехали покорять Америку. И, как оказалось, не зря. Там "Back Here" удерживался в "двадцатке" лучших песен в течение 3 месяцев. Этот сингл был даже номинирован на награду Rаdio Music Awards как самую часто заказываемую композицию на американском радио. Подогретые первым успехом BBMak выпустили в Америке свой дебютный альбом "Sooner or Later", который разошелся более чем миллионным тиражом. Вслед за любвеобильными американцами, этими парнями повально увлеклись жители далекой Японии. И вот только сейчас судьба привела группу обратно в Европу. В мае в Великобритании состоялся релиз альбома BBMak. И хотя многие BBMak называют "новыми Backstreet Boys" участники группы не соглашаются с этим. "Мы не какая-то заурядная мальчуковая команда. Нас трое парней в группе, на этом сходство заканчивается. Мы сами пишем тексты и музыку, мы хорошо поем и поем в живую. В наших песнях есть какой-то смысл, содержание. Нам неважно, насколько хорошо мы выглядим, ведь, если песня ничего собой не представляет, то никто не станет ее слушать", - пояснили BBMak. Скрыть...
Популярные аккорды BBMak:
алфавиту | просмотрам | случайно
  • ^b= bend up
    
       Play 2x
    E----------------------------------------------------0-------|
    B-8-10-10-12-12-12-12-12-12^b-10-8-10-12-10-8-10--8----3-----|
    G------------------------------------------------------------|
    D------------------------------------------------------------|
    A------------------------------------------------------------|
    E------------------------------------------------------------|
    
    E------------------------------------------------------------|
    B1010-10-12-12-12-12-12-12^b-10-8-10-12-10-8-----------------|
    G------------------------------------------------------------|
    D------------------------------------------------------------|
    A------------------------------------------------------------|
    E------------------------------------------------------------|
    
    After…
  • Recommended Chords:
    Chord......eadgbE
    Em.........022000
    C..........032010
    G..........320003
    Dsus.......xx0233
    D..........x00232
    C/D........032033
    Am7........x02010
    D/E........2x0230
    
    
    Intro:    Em    C    G    C…
  • Intro: Am G F x2
    
    Am     G      G
    I feel fine
    F                             C       G       Am
    Now the rain has gone and the sun has come to shine  
                G           F
    Nothing can get me down today
    Am        G…
  • Recommended Chords:
    Chord......eadgbE
    Am.........002210
    E..........022100
    F/E........003210
    C..........032010
    Em.........022000
    Dm.........x00231
    F..........x03211
    G..........320003
    
    
    Intro:   Am      E      F/E     C…
  • Intro Bb F Eb Eb F 
    
    Bb                        F
    I lie awake and die I try but can't deny 
    Eb                        F
    That I can't make it without her 
    Bb                           F
    I can't forget the day I let her slip…
  • Recommended Chords:
    Chord......eadgbE
    Amaj.......x02120
    Asus.......002230
    Dm7........xx0211
    E7.........020100
    
    
    
    Intro:    Amaj7      Asus    (individual picking)
    
    Verses:   Amaj7     Asus     Amaj7     Asus
              Amaj7…
  • Standard Tuning
    
    (Riff 1) - Repeat 4x for intro
    (Let notes ring)
    
    E|---2-----0------------------------------------------|
    B|------3-----0--3-----0------------------------------|
    G|------------------2-----0--2-----0------------------|
    D|------------------------------4-----2--4-----2------|
    A|------------------------------------------5-----2---|
    E|----------------------------------------------------|
    
    Em			D			C	
    What…
  • Intro:
    
            Dm    Em      F     Em     Dm     Em      F     G
    	/  /  /  /    /  /  /  /    /  /  /  /    /  /  /  /
                                                       Do you...
    
    Verse 1:
    
    	                   C
    	Do you…
  • Intro and verses:
    E-----------------------------------------------------------------
    B--------3--------3--------3----------------3----------0----------
    G----0---2----0---2----0---2----0---0---0---2----0---0---2---2----
    D------0--------0--------0--------0-------0--------0-------0-----0
    A------------------------------------------------------3----------
    E--3----------------------------------3---------------------------
    
    E-----------------------------------------------------------------
    B--3----------3---------3---------3-----------------3-------------
    G--------0----2-----0---2-----0---2-----0---0---0---2-----0---0---
    D----0------0---------0---------0---------0-------0---------0-----
    A-----------------------------------------------------------------
    E------3--------------------------------------3-------------------
    
    E-----------------------------------------------------------------
    B---0-----------3----------3---------3---------3------------------
    G-----2---2------------0---2-----0---2-----0---2------0---0-------
    D-------0-----0----0-----0---------0---------0----------0---------
    A---3-------------------------------------------------------------
    E--------------------3--------------------------------------------
    
    E-----------------------------------------------------------------
    B---------3---------0---------------------------------------------
    G-----0---2-----0-------------------------------------------------
    D-------0---------0-----------------------------------------------
    A-------------------3---------------------------------------------
    E---3-------------------------------------------------------------
    
    Before…
  • Recommended Chords:
    Chord......eadgbE
    D..........x00232
    Dsus.......xx0233
    Em.........022000
    G/D........320033
    Cadd9......032030
    F..........x03211
    
    
    
    Intro & Verses:  
    E----0---0-----0---0----0---0-----0---0---------
    B----0---0-----0---0----2---2-----2---2---------
    G----0---0-----0---0----0---0-----0---0---------
    D--2---------2--------2--------2----------------
    A-----------------------------------------------
    E-----------------------------------------------
    
    
    Chorus:…
  • Eb           Bb
    I will stand up for you
    Cm                    Ab
    No matter what you're going through,
    
    (Going through, going through)
    
    
    Gb                      Db
    You found a place where you belong
    Ebm                  B
    New…
  • E--------0---------------0---------------0---------------0----------
    B------0---0-----------0---0-----------0---0-----------0---0--------
    G----2-------2---2---2-------2---2---1-------1---1---1-------1---0--
    D--4-----------4---2-----------2---2-----------2---2-----------2----
    A-------------------------------------------------------------------
    E-------------------------------------------------------------------…
Наверх