Аккорды «Beatsteaks»

Beatsteaks
Beatsteaks — панк-рок-группа из Берлина, основанная в 1995 г. С их дебютным альбомом «Launched» в 1999 г., они стали первой немецкой группой на лейбле Epitaph Records. На MTV Europe Music Awards в 2004 г. они получили награду, как лучшая немецкая группа. Дебют Beatsteaks для американской публики состоялся в телепередаче MTV Viva La Bam и появились на сборнике Viva La Bands с песней «I Don’t Care as Long as You Sing». А также их песни попадали на сборники Punk-O-Rama. 30 марта 2007 г. вышел «Limbo… Читать полностью... Beatsteaks — панк-рок-группа из Берлина, основанная в 1995 г. С их дебютным альбомом «Launched» в 1999 г., они стали первой немецкой группой на лейбле Epitaph Records. На MTV Europe Music Awards в 2004 г. они получили награду, как лучшая немецкая группа. Дебют Beatsteaks для американской публики состоялся в телепередаче MTV Viva La Bam и появились на сборнике Viva La Bands с песней «I Don’t Care as Long as You Sing». А также их песни попадали на сборники Punk-O-Rama. 30 марта 2007 г. вышел «Limbo Messiah» и достиг третьего места в германских чартах. Релиз последнего альбома, названного «Boombox», состоялся 28 января 2011 г. Состав группы: Арним Тевтобург-Вайс (Arnim Teutoburg-Weiss) - вокал, гитара; Бернд Куртцке (Bernd Kurtzke) - гитара; Петэр Бауманн (Peter Baumann) - гитара; Томас Гётц (Thomas Götz) - ударные; Торстэн Шольц (Torsten Scholz) - бас-гитара. Скрыть...
Популярные аккорды Beatsteaks:
алфавиту | просмотрам | случайно
  • Eb|-----------------------||
    Bb|-----------------------||
    Gb|-------7-7-7-7---------||
    Db|-------7-7-7-7---------||
    Ab|-------x-x-x-x---------||
    Eb|-----------------------||
    
    
    Heavy Part:
    
    Eb|--------------------------------||
    Bb|--------------------------------||
    Gb|-------7-7-7-7-x-x-x-x----------||
    Db|-------7-7-7-7-x-x-x-x----------||
    Ab|-------5-5-5-5-x-x-x-x----------||
    Eb|--------------------------------||
    
    Pre…
  • Tuning: eb Bb Gb Db Ab Eb
    
    Intro:
    Guitar1
    e|----------------------------|
    B|----------------------------|
    G|-------------------77777777-|
    D|-77777777-33333333-77777777-|
    A|-77777777-33333333-55555555-|
    E|-55555555-11111111-55555555-|
    
    Verse1:
    Guitar1
    e|-----------------------------------------------------------------------000-|
    B|-----------------------------------------------------------------------000-|
    G|-----------------------------------------------------------------------xxx-|
    D|-7-76-4---9-97-2---7-76-4---9-97-2---7-76-4---9-97-2---7-76-4---9-97-22222-|
    A|-7-76-4---9-97-2---7-76-4---9-97-2---7-76-4---9-97-2---7-76-4---9-97-22222-|
    E|-5-54-2---7-75-0---5-54-2---7-75-0---5-54-2---7-75-0---5-54-2---7-75-00000-|
    
    Chorus:
    Guitar1
    e|---------------------------------------------------|
    B|---------------------------------------------------|
    G|-77777777-666-444-222-4-6-77777777-------------4-6-|
    D|-77777777-666-444-222-4-6-77777777-444-555-777-4-6-|
    A|-55555555-444-222-000-2-4-55555555-444-777-777-2-4-|
    E|-55555555-----------------55555555-222-777-555-----|
    
    e|----------------------------------|
    B|----------------------------------|
    G|-7777-9999-1111111111111111-7777~-|
    D|-7777-9999-1111111111111111-7777~-|
    A|-5555-7777--9-9-9-9-9-9-9-9-5555~-|
    E|----------------------------------|
    
    Verse2:
    Guitar1
    e|-----------------------------------0~-------2~-------0~-------2~-------000-|
    B|-----------------------------------0~-------2~-------0~-------2~-------000-|
    G|-----------------------------------1~-------2~-------1~-------2--------111-|
    D|-7-76-4---9-97-2---7-76-4---9-97-2---7-76-4---9-97-2---7-76-4---9-97-22222-|
    A|-7-76-4---9-97-2---7-76-4---9-97-2---7-76-4---9-97-2---7-76-4---9-97-22222-|
    E|-5-54-2---7-75-0---5-54-2---7-75-0---5-54-2---7-75-0---5-54-2---7-75-00000-|
    
    Chorus2:
    Guitar1
    e|---------------------------------------------------|
    B|---------------------------------------------------|
    G|-77777777-666-444-222-4-6-77777777-------------4-6-|
    D|-77777777-666-444-222-4-6-77777777-444-555-777-4-6-|
    A|-55555555-444-222-000-2-4-55555555-444-777-777-2-4-|
    E|-55555555-----------------55555555-222-777-555-----|
    
    e|-----------------------------------|
    B|-----------------------------------|
    G|-7777-9999-1111111111111111-777777-|
    D|-7777-9999-1111111111111111-777777-|
    A|-5555-7777--9-9-9-9-9-9-9-9-555555-|
    E|-----------------------------------|
    
    Bridge:
    Guitar1
    e|----------------------------|
    B|----------------------------|
    G|----------------------------|
    D|-------------------77777777-|
    A|-77777777-33333333-55555555-|
    E|-55555555-11111111----------|…
  • INTRO
    e:---------------------------------------------------------------|
    B:---------------------------------------------------------------|
    G:---------------------------------------------------------------|
    D:---------------------------------------------------------------|
    A:---6-6-7-7-7-7-7-7-7-7-----------------------------------------|
    E:-----------------------4-4-4-4---------------------------------|
    
    CHORUS
    e:---------------------------------------------------------------|
    B:---------------------------------------------------------------|
    G:---8-8-9-9-9-9-9-9-9-9-9-9-9-8-8/13----------------------------|
    D:---8-8-9-9-9-9-9-9-9-9-9-9-9-8-8/13----------------------------|
    A:---6-6-7-7-7-7-7-7-7-7-7-7-7-6-6/11----------------------------|
    E:---------------------------------------------------------------|
    
    BRIDGE…
  • Tuning: Sharp D Tuning
    
    Intro: 1x
    e|------------------------------------------------------|
    B|-66666666-55555555----------1010101010101010-99999999-|
    G|-55555555-44444444-22222222-1010101010101010-99999999-|
    D|-33333333-22222222-22222222-1010101010101010-99999999-|
    A|-33333333-22222222-00000000--8-8-8-8-8-8-8-8-77777777-|
    E|------------------------------------------------------|
    
    Verse:…
Наверх