Аккорды «Bee Gees»

Bee Gees
Bee Gees («Би Джиз») — британская рок-группа. Состояла из трёх братьев: лидер-вокалиста и ритм-гитариста Барри Гибба, второго лидер-вокалиста Робина Гибба и клавишника и бас-гитариста Мориса Гибба. Барри Гибб родился 1 сентября 1946 г. в Манчестере (Англия). Робин и Морис — близнецы, родились 22 декабря 1949 г. В 1961 г. семья Гиббов переехала из Манчестера на заработки в Австралию. В 1966 г. Гиббы вернулись в Англию, где начали успешную карьеру в рок-музыке. В частности, первый альбом группы… Читать полностью... Bee Gees («Би Джиз») — британская рок-группа. Состояла из трёх братьев: лидер-вокалиста и ритм-гитариста Барри Гибба, второго лидер-вокалиста Робина Гибба и клавишника и бас-гитариста Мориса Гибба. Барри Гибб родился 1 сентября 1946 г. в Манчестере (Англия). Робин и Морис — близнецы, родились 22 декабря 1949 г. В 1961 г. семья Гиббов переехала из Манчестера на заработки в Австралию. В 1966 г. Гиббы вернулись в Англию, где начали успешную карьеру в рок-музыке. В частности, первый альбом группы (1967), оформленный Клаусом Вурманом, прославил братьев как восходящих звёзд психоделического попа и недюжинных мелодистов, запомнившись такими хитами, как Turn Of The Century, Holiday, Every Christian Lion Hearted Man Will Show You, New York Mining Desaster 1941, To Love Somebody и I Close My Eyes. Однако к началу 70-х гг. переполненные балладами пластинки Bee Gees перестали пользоваться успехом. В попытках вернуть популярность братья начали эксперименты с элементами фанка и джаз-рока. Вторая фаза истории Bee Gees началась, когда музыканты неожиданно для всех обратились к музыке диско. В 1977 г. был выпущен саундтрек к фильму «Saturday Night Fever». Bee Gees стал одним из главных поставщиков хитов для дискотек второй половины 1970-х гг (хит Tragedy и др.). Однако к середине 80-х гг. музыка группы, как и само диско, стали терять популярность. Bee Gees вернули себе внимание критики и любителей музыки на рубеже веков, выпустив несколько традиционных рок-альбомов. В частности, некоторый успех имела заглавная тема диска This Is Where I Came In (2001 г.). В 2003 г. группа прекратила существование в связи со смертью Мориса Гибба. Дискография: * Bee Gees 1st (1967) * Horizontal (1968) * Idea (1968) * Odessa (1969) * Best of Bee Gees (1969) * Cucumber Castle (1970) * 2 Years On (1970) * Trafalgar (1971) * To Whom It May Concern (1972) * Life In a Tin Can (1973) * A Kick In The Head Is Worth Eight In The Pants (1973) * Best of Bee Gees Volume 2 (1973) * Mr. Natural (1974) * Main Course (1975) * Children of the World (1976) * Saturday Night Fever (1977) * Spirits Having Flown (1979) * Bee Gees Greatest (1979) * Living Eyes (1981) * Staying Alive (soundtrack) (1983) * E.S.P. (1987) * One (1989) * Tales from the Brothers Gibb (1990) * High Civilization (1991) * Size Isn't Everything (1993) * Still Waters (1997) * One Night Only (1998) * This Is Where I Came In (2001) * Their Greatest Hits: The Record (2001) * Number Ones (2004) * Bee Gees Love Songs (2005) Скрыть...
Популярные аккорды Bee Gees:
алфавиту | просмотрам | случайно
  • Intro: Em A C Em Em A C Em
    
    
    VERSE CHORDS
    Em             A
    I've seen this story
      C                    Em
    I read it over once or twice
    Em          A                 
    I said like you say 
      C                    Em
    A little…
  • e|R------------------------------------------------|
    b|E------------------------------------------------|
    g|P-----1----------------------------------1---3~--|
    d|E-1h3---1-----------1------1--------1--3---------|
    a|A-----------3---1h3----1h3-----1--3--------------|
    e|T------------------------------------------------|
    
    e|------------------------------------------------R|
    b|------------------------------------------------E|
    g|-----1----------------------------------1-------P|
    d|-1h3---1-----------1------1--------1--3---------E|
    a|-----------3---1h3----1h3-----1--3--------------A|
    e|------------------------------------------------T|…
  • Intro: Bm Em Bm A G A D A then hammer D chord
    
    
    VERSE CHORDS
    D
    Here I lie
    In a lost and lonely part of town
    Held in time
    In a world of tears I slowly drown
    E
    Goin'home
    I just can't make it 
    F#
    All alone
    I really should be…
  • Intro:  D  |        | Em/D    |  A
            D  | D E F# | G  E  B |  A 
    
    	     
    D
    I couldn't figure why
                              F#m
    You couldn't give me what everybody needs
    Bm                                   F#m
    I shouldn't…
  • 84 bpm 4/4 time
    
    Tune down 1/2 step Eb Ab Db Gb Bb Eb
    
    INTRO:            A7sus4
      Eb |-----------|.-----------------|.---------------|-------.-----------|
      Bb |-----------|7-----------------|7---------------|-------7-----------|…
  • CHORDS
    
    INTRO
    
    D  Gmaj9 D
    
    VERSE
    
    D  Gmaj7 D D  Gmaj7 D
    
    BRIDGE 1
    
    Bm7 Em7 A Em7 G D 
    
    CHORUS
    
    D Bm7 Em7 D Bm7 Em7 F#m7 Gmaj9   D
    
    BRIDGE 2
    
    Bm7 Em7 A Bm Em7 A
    
    CODA
    
    D
    
    FINGERINGS
    
    
      Gmaj9  Gmaj7  Bm7  Em7  F#m7
    E--2------2-----2----0-----2---
    B--0------0-----3----3-----2---
    G--2------0-----2----0-----2---
    D--0------0-----4----2-----2---
    A--0------2-----2----2-----4---
    E--3------3----------0-----2---…
  • Chorus (have you seen my wife mr. Jones?)
    E |-------------------------------------------------|
    H |------1---------------1---6--6--6--6--5--5-6----|
    F#|-1--1----1--1-1--1--1-------------------------3--|
    C#|-------------------------------------------------|
    
    
    Verse…
  • [G]Feel I'm goin' [Am]back to [C]Massa[G]chusetts,       [Am]   [C]
    [G]Something's telling [Am]me I [C]must go [G]home.
    And the lights all went out in Massa[C]chusetts
    The day I [G]left her [D7]standing on her [G]own.…
  • Verse
    E |-----------------|	  E |-----------------|
    H |-----------------|	  H |-----------------|
    F#|-5-5-5-5-5-5-5-5-|	  F#|-----------------|
    C#|-----------------| x8  C#|-3-3-3-3-3-3-3-3-| x2
    
    E |-----------------|…
  • Chords :
    -------
    D     :xx0232          Bm  :xx4432        Dsus2 : xx0230
    Dmaj7 :xx0222          Bm7 :xx4232        Dsus4 : xx0233
    A     :002220          E7  :022130
    A9    :002203          Em7 :022030
    F#m   :244222…
  • Chords Used : 
    
    G    : 320001
    G/F# : 200001
    Em   : 022000
    C    : 032010
    Fmaj7: x33210
    A7   : 002020
    D    : xx0232
    
    Intro : G
    
    G           G/F#       G      Em
    Living in a world that dies within…
  • G             D         Em         Bm
    Where is the sun that shone on my head
    C              G           A           D
    The sun in my life, it is dead, it is dead
    G             D                Em         Bm
    Where is the light…
  • VERSE I
    D                        G              D    G
    JUST MY DOG AND I AT THE EDGE OF THE UNIVERSE
           D
    WELL I DIDN'T WANNA BRING HER 
          G                   D    G
    AND I KNOW IT'LL MAKE HER WORSE 
          Em…
  • INTRO - After 17 seconds = G
    
    VERSE
    
    D  A  G  D  A
    
    PRE-CHORUS
    
    D  A  G  D  A  G
    
    CHORUS
    
    D  Bm  G  A  D  Bm  G  G
    
    1. D  A  G
    2. D
    
    MIDDLE 8 [with ELECTRIC]
    
    Bb  C  D  Bb  C  Em  A
    
    
    ELECTRIC PARTS
    
    CHORUS 3
    E-----------------------------------------------------------------------------------------
    B----------------10[12]---10-8-7--------------------------8/10--8-7-----------------------
    G--7-----------------------------9-7---------9--9/11/9--------------9-7--7----------------
    D--7---------------------------------------------------------------------7----------------
    A--5---------------------------------------------------------------------5----------------
    E-----------------------------------------------------------------------------------------
    
    E-----------------------------------------------------------------------------------------
    B-----------------------------------------------------------------------------------------
    G--4------------------------11-9-7-9------------------------------------------------------
    D--4------------5-------------------------------------------------------------------------
    A--2------------5-------------------------------------------------------------------------
    E---------------3-------------------------------------------------------------------------
    
    CODA
    
    [Harmonics]
    E-----------------------------------------------------------------------------------------
    B---------------------[7]-----------------------------------------------------------------
    G--------[7]-----------------[7]----------------------------------------------------------
    D-----------------------------------------------------------------------------------------
    A-----------------------------------------------------------------------------------------
    E-----------------------------------------------------------------------------------------…
  • Verse 
       Maybe I don't...
    E |-----------------------------------------------------------------|
    H |-----------------------------------------------------------------|
    F#|-------------------4--6-----------------------------3---4--6-----|
    C#|-4--4----4----6----------4--------4--4----4----6--------------4--|…
  • Keyboard plays: (I'm not sure)
    E |--------------------------------------------------------------
    H |--------------------------------------------------------------
    F#|-6----6----6----6----6----3----4----1----2----0----4----4--5--
    C#|--------------------------------------------------------------
    
    E…
  • INTRO
    
    GUITAR 1
    E-----------------------------------------------------------------------------------------
    B-----------------------------------------------------------------------------------------
    G--------4-----------4-----------2----------2---------------------------------------------
    D----5-5----5----5-5----5----5-5---5----5-5---5-------------------------------------------
    A--5-----------5-----------5----------5---------------------------------------------------
    E-----------------------------------------------------------------------------------------
    						Repeat…
  • INTRO
    							Repeat once
    E----0-0-3-2-----5--3--------5---5-----5---5---7---7--5-----------------------------------
    B------------------------------------5---5------------------------------------------------
    G-----------------------------------------------------------------------------------------
    D-----------------------------------------------------------------------------------------
    A-----------------------------------------------------------------------------------------
    E-----------------------------------------------------------------------------------------
    /
    /
    /
    E--0--------------------------------------------------------------------------------------
    B--0--------------------------------------------------------------------------------------
    G--0--------------------------------------------------------------------------------------
    D--2--------------------------------------------------------------------------------------
    A--2--------------------------------------------------------------------------------------
    E--0--------------------------------------------------------------------------------------
    
    
    VERSE…
  • Tuning - EADGBE
    
    
     A               E
    If ever you got rain in your heart, 
     F#m                       D
    someone has hurt you, and torn you apart, 
      E                                    A
    am I unwise to open up your eyes…
  • Chorus
    
    G           A                D        Bm   
    Now, I've found, that the world, is round,
              G         A        D   
    and of course, it rains, everyday.
    
    Verse
    
    Bm                     G            F#m       Em
    Living…
  • CHORDS
    
    VERSE
    
    A G/A A F#m C#m F#m Bm C#m D A Fmaj7 G A Fmaj7 G
    
    CHORUS 1
    
    A Bm A Bm A Fmaj7 G A G Fmaj7 G
    
    CHORUS 2
    
    A Bm A Bm C#m Bm C#m Bm A Fmaj7 G A Fmaj7 G
    
    CHORUS 3
    
    A Bm A Bm A Bm A Bm
    
    
    FINGERINGS
    
       F#m    C#m…
Наверх