Аккорды «Ben Harper»

Ben Harper
Бенджамин Чейз "Бен" Харпер - американский сингер-сонграйтер и мульти-инструменталист. Он играет смесь блюза, фолка, соула и регги. Стиль его игры на акустической гитаре формировался под влиянием великих блюзменов и фолк-музыкантов, а технику игры он совершенствовал на слайд-гитаре "Weissenborn", которую еще в конце 20-х создал Herman Weissenborn. Этот инструмент стал фирменной "фишкой" гитариста. "Если я когда-нибудь возьму в руки Strat, заброшу Weissenborn, а потом еще, чего доброго, сяду за… Читать полностью... Бенджамин Чейз "Бен" Харпер - американский сингер-сонграйтер и мульти-инструменталист. Он играет смесь блюза, фолка, соула и регги. Стиль его игры на акустической гитаре формировался под влиянием великих блюзменов и фолк-музыкантов, а технику игры он совершенствовал на слайд-гитаре "Weissenborn", которую еще в конце 20-х создал Herman Weissenborn. Этот инструмент стал фирменной "фишкой" гитариста. "Если я когда-нибудь возьму в руки Strat, заброшу Weissenborn, а потом еще, чего доброго, сяду за клавиши или начну дудеть на трубе, значит, у меня начались серьезные проблемы, - говорит Харпер. - Значит, я ушел от своих корней. Я навсегда связан с Weissenborn, каждый день он раскрывает мне что-то новое. Каждый раз, когда я беру его в руки, меня ждет открытие". Скрыть...
Популярные аккорды Ben Harper:
алфавиту | просмотрам | случайно
  • Verse: Bm  A  E
     Could this word I heard you said me this morning
     Showing some kind of sign of your believe
     Did it fall from your tongue without warning
     Or just another trick to fall from your sleeve
     Did I hear…
  • CHORDS USED:
    
    G: 3th fret -3-  Am: 5th fret-5-  *Bb: 6th fret-x-  Bm: 7th fret -7-|
                -3-              -5-               -6-               -7-|
                -4-              -5-               -6-               -7-|…
  • |-------------------------------|---------------------|
    |----0-1-0----------------------|--1-0----------------|
    |--2---0---2-0-----------0------|--0---2-0------------|
    |------2-------4-2-1-2-4---4-2--|--2-------4-2--1--2--|
    |------3-----------2------------|--3------------2--0--|
    |------------0-----------0------|--------0------------|
    
    |-----------------------------|--------------------------|
    |--0-1-0----------------------|--1-0---------------------|
    |----0---2-0-----------0------|--0---2-0-------0---------|
    |----2-------4-2-1-2-4---4-2--|--2-------4-2-------1-----|
    |----3-----------2------------|--3-----------3-----------|
    |----------0-----------0------|--------0---------2----0--|
    
    |-------------------------------|---------------------|
    |----0-1-0----------------------|--1-0----------------|
    |--2---0---2-0-----------0------|--0---2-0------------|
    |------2-------4-2-1-2-4---4-2--|--2-------4-2--1--2--|
    |------3-----------2------------|--3------------2--0--|
    |------------0-----------0------|--------0------------|
    
    |-----------------------------|--------------------------------|
    |--0-1-0----------------------|--1-0---------------------------|
    |----0---2-0-----------0------|--0---2-0-------0---------------|
    |----2-------4-2-1-2-4---4-2--|--2-------4-2-------1----2h4p2--|
    |----3-----------2------------|--3-----------3-----------------|
    |----------0-----------0------|--------0---------2----0--------|
    
    |-----------------------------|
    |------------1-1---0-0--------|…
  • CHORDS
    A   [0 0 2 2 2 0]         D7  [x 0 0 2 1 2]
    Bm  [2 2 4 4 3 2]         Em7 [0 2 2 0 3 3]
    C   [0 3 2 0 1 0]         G   [3 2 0 0 3 3]
    D   [x 0 0 2 3 2]
    
    
    (Standard Tuning)
    
    
    VERSE 1
    [D] I know you may not…
  • Tuned Down to  D G C F A D
    
    
    Intro/Verse
    D|--------------------------------------------|
    A|------------1-1-------1-1-------------------|
    F|------------2-2-------2-2-------------------|
    C|----0-0-----2-2-------3-3----------0h2------|
    G|----2-2--0-----------------3---0h3-----3----|
    D|-3--3-3---------0--1--1-1-------------------|
    
    
    Intro…
  • Main riff/intro:
    
      Dm     |F   |Gm    |Bb  ||repeat....
    e---------------------------------------------------------||
    B---------------------------------------------------------||
    G---------------------------------------------------------||
    D----0------0-----0-----0-0h3---0-----0-----0-----0-2h3-0-||
    A--5---5--3---3-2---2-1-------5---0-3---0-2---0-1---3-----||
    d--0------3-----5-----0-------0-----3-----5-----0---------||
    
    
    D…
  • Riff 1
    Clean
        F                      C			G
    e---1----------------------3--------------------3--------------------3-|
    B---1----------------------5--------------------3--------------------3-|
    G---2-------0h2p0----------5--------0h2p0-------4--------0h2p0-------4-|
    D---3--0--2-------3p2p0----5--0--2-------3p2p0--5--0--2-------3p2p0--5-|
    A---3----------------------3--------------------5--------------------5-|
    E---1-------------------------------------------3--------------------3-|
    
    This…
  • Tuning:standard
    
    
    Intro
    
    e|---------------------------------------------------------------------------|
    B|---------------------------------------------------------------------------|
    G|---------------------------------------------------------------------------|
    D|---------------------------------------------------------------------------|
    A|-----10-------11-------6-------7--------4----------5------------3-------2--|let…
  • Riff
    
    e ---------------------------
    b ---------------------------
    g --0------------------------
    d ----2p0--------------------
    a --------2p0----------------
    E ------------3p0------------
    
    
    Verse 1 (0:02 0:50)
    G
    I…
  • Open tuning to D
    
    |----------------------------------------------------------------------||
    |----------------------------------------------------------------------||
    |---------------------------------------------------------------------.||…
  • Tuning: E A D G B e
    
    Timing 3/4
    
    
    intro
         C				      Am	        G
    e||----------------|----------------|----------------|---------------|
    B||-----1--1-------|-----1--1-------|-----1--1p0-----|-----0--0h1----|
    G||-----0--0-------|-----0--0-------|-----2--2p0-----|-----0--0------|
    D||----------------|----------------|----------------|---------------|
    A||--3-------------|--2-------------|--0-------------|---------------|
    E||----------------|----------------|----------------|--3------------|…
  • Tuning : D B C F A D (1 tone lower than standard tuning)
    Tempo: about 65
    
    
    Intro/ Verse:
     |       |       |       |        |       |       |       |
    |--------------------------------|--------------------------------|
    |--------------------------------|--------------------------------|
    |--------0-----0---------0-----0-|--------0-----0---------0-----0-|
    |--------------------------------|--------------------------------|
    |--------------------------------|--------------------------------|
    |3---3-----------2---2-----------|0---0-----------0h2-3-----------|…
  • In standard tuning
    
    --3---3------------------------------------------------------------|
    --0---2---1--0-1-1---1--------3--1---------------------------------|
    --0---2---2--0-2-2?2-2-slide--4--2---------------------------------|
    --0---x---2--0-2-2-2-2--------4--2---------------------------------|
    --2---x------------------------------------------------------------|
    --3---x------------------------------------------------------------|
    
    
    In…
  • D|-----------------------------------------|
    A|---0-h-1----1-------0--------0-----1-----|
    F|---0-h-2----2-------0--------0-----2-----|
    C|---0-h-2----2---0-------0----------2-----|
    G|-----------------------------------------|
    D|-----------------------------------------|
    
    
    D-----------------------------------------|
    A---0-h-1----1-------0--------0-----1-----|
    F---0-h-2----2-------0--------0-----2-----|
    C---0-h-2----2---0-------0----------2-----|
    G-----------------------------------------|
    D-----------------------------------------|
    
    
    D-----------------------------------------|
    A--0-h-1----1-------0--------0-----1------|
    F--0-h-2----2-------0--------0-----2------|
    C--0-h-2----2---0-------0----------2------|
    G-----------------------------------------|
    D-----------------------------------------|
    oppression…
  • Intro: D F#m Bm G G/F# A
    
    verses: D F#m Bm (a) G - 4X
    
    Chorus: D F#m Bm F#m G D G GG A
    
    
    Play intro
    
    
    Verse 1:
    The good lord is such a good lord     with such a good mother too 
    they have blessed me      in the good graces…
  • Riff 1:
    G|---------------|---------------|
    D|-3-3---3-------|---------------| 4x
    A|---------3-----|---------1-0---|
    E|-------------1-|-------------3-|
       |   |   |   |   |   |   |   |
    
    
    Verse:
    G|---------------|---------------|---------------|---------------|
    D|-3-3---3-------|---------------|---------------|---------------|
    A|---------3-----|---------------|-5-5---5-0---1-|---------1-0---|
    E|-------------1-|-------X-1---0-|---------------|-------1-----3-|…
  • Drop D tuning
    
    
    Intro:
    e--------------------------------------------------|
    b--------------------------------------------------|(x2)
    g--------------------------------------------------|
    d-----4h5p4-------2h3p2----------------4h5p4-------|
    a-----5-----5--3--3-----3---222-33-5---5-----5-----|
    D--0----------------------5----------0-------------|
    
    
    Verses:
    e--------------------------------------------|
    b--------------------------------------------|
    g--------------------------------------------|
    d-----4h5p4----------------------------------|
    a-----5-----5--3---------3p2-----2-3p2-------|
    E--0-------------0h2-5-5-----5-5-------5-----|
    
    
    Chorus:
    e--------------------------------------------------|
    b--------------------------------------------------|
    g--------------------------------------------------|
    d-----4h5p4-------2h3p2----------------4h5p4-------|
    a-----5-----5--3--3-----3---222-33-5---5-----5-----|
    D--0----------------------5----------0-------------|…
  • Verse 1/ play as   
    intro first then do as verse  
     
    all this talk   
    of.......  
    E|--3---3---3-3-3---3-3-3-3--3--3-3---3-3-3-----------|  
    B|--1---1---1-1-1---1-1-1-1--1--1-1---1-1-1--1-1-1----|  
    G|--0---0---0-0-0---0-0-0-0--0--0-0---0-0-0--0-0-0----|…
  • Intro: Am2 - x02200
    
    
    Verse:
          Am			C	G	D
    Mama why does he treat me so cold so cold so cold
    Am		   c	  G	D
    Why do I feel so old so old so old
         Am			     C	     G	    D
    how long has he treated me unkind unkind…
  • Tuning: D G C F A D     Rythm: 2/4
    
     |       |        |       |        |       |        |       |        
    |------0---------|------0---------|--0-------------|0---------------|
    |--1-------------|----------------|----------------|----------1-----|
    |----2-------0h2-|--2-----------2-|----------------|--------------0-|
    |3-------3-------|----2-------2---|----2-------0---|----2-------2---|
    |----------------|0-------0-------|0-------2-------|3-------3-------|
    |----------------|----------------|----------------|----------------|…
  • Intro:
    
       Em           D
    e|----0-0-0-0-0-0---2-2-3-2-|-|-|-----------------------------0-0-0-0-|
    B|----0-0-0-0-1-0---3-3-3-3-|-|-|-----------1-1-3-1-----------0-0-1-0-|
    G|----0-0-0-0-0-0---2-2-2-2-|%|%|-----0h2---2-2-2-2-----------0-0-0-0-|
    D|----2-2-2-2-2-2-0---------|-|-|-0-0-------2-2-2-2-----0h2---2-2-2-2-|
    A|-2------------------------|-|-|---------0---------0-0-------2-2-2-2-|
    E|--0-----------------------|-|-|---------------------------0-------0-|
    
    
    Couplet:…
  • [Intro]
       1   2   3   4   | |1   2   3   4   |1   2   3   4   |1   2   3   4   |
    e------------------| |----------------|----------------|----------------|
    b--------------3-5s| |7---3-------5p3-|----------------|----------------|
    g------------2-----|…
  • Intro:
    
        Am     F     G        Am              C     F     G
    e|---------------3--3---------------|------------------------------|
    B|--0h1----1-----0--0-----0h1p0-----|--0---1-----1---------0-------|
    G|--2------2-----0--0----------2----|--0---------2--------0--------|
    D|--2------3--------------------2---|------2-----3-------0---------|
    A|----------------------------------|--0---3------------2----------|
    E|---------------3--3---------------|------------------3-----------|
    
    
    Verse:…
  • Chords used:
    
    C9: x32033
    D:  xx0323 
    G:  320033
    Q:  200233 
    Em7:x22033
    
    
    Intro(a tad slower); C9  D  G  Q(200233) Em7  C9  D  Em7
    
    
    Verse 1:
    C9                 D
    We have both been here before 
    G        Q    Em7
    Knockin'…
  • Riff #1 (play once for each of the first three lines of each verse) 
       e|------------------------------------------------------------| 
       B|------------------------------------------------------------| 
       G|------------------------------------------------------------|…
  • Intro
    
        Am               F              C                G
    e|------------------1-1-1-1-1-1-1--0-0--------------3-3-------------|
    B|-1-1-1-1---1-1-1--1-1-1-1-1-1-1--1-1--------------3-3-------------|
    G|-2-2-2-2---2-2-2--2-2-2-2-2-2-2--0-0--------------0-0-------------|
    D|-2-2-2-0h2-2-2-2--3-3-3-3-3-3-3--2-2-2-0-2-3-2-0--0-0-------------|
    A|------------------3-3-3-3-3-3-3--3-3--------------2-2-2-0-2-3-2-0-|
    E|------------------1-1-1-1-1-1-1--3-3--------------3-3-------------|
    the…
  • --------------------------------------------------
    --------------------------------------------------
    --------------------------------------------------
    -----4/5/4----------2/3/2-------------------------
    --5----------5-----3---------3---2-2-2/3/4/5------
    ---------------------------------3----------------
    
    repeat…
  • Tuning: D G C F A D    Time Signature 3/4
    
    Tempo: 96
    
    
    Intro:
     |   |   |    |   |   |    |   |   |    |   |   |    
    |------------|------------|------------|------------|
    |----1---1---|------------|----1---1---|------------|
    |----0---0---|------------|----0---0---|------------|
    |------------|------------|------------|------------|
    |3-----------|------------|3-----------|------------|
    |------------|1-----------|------------|1-----------|
    
    
    Part…
  • Tuning:D G C F A d (down 1 step)
    
    
    verse
    e:  -------3-3-3-0-0-0-2-2-2-3-3-3-|
    B:  -------3-3-3-1-1-1-3-3-3-3-3-3-|
    G:  -----0-0-0-0-0-0-0-2-2-2-0-0-0-|
    D:  -0h2---0-0-0-2-2-2-0-0-0-0-0-0-|
    A:  -------2-2-2-3-3-3-------2-2-2-|
    E:…
  • INTRO:
    G|---------------|
    D|-5-5/75--5--5-|
    A|-5-5/75--5--5-|
    E|-3-3/53--3--3-|
    
    G|-0-0---3---------|-0-0-------------|
    D|-----3-----2-3-4-|-----2-3---2-3-4-|
       1 + 2 + 3 + 4 +   1 + 2 + 3 + 4 +
    
    G|-0-0---3---------|-0-0-------------|
    D|-----3-----2-3-4-|-----2-3---2-3-4-|…
  • STANDARD TUNING
    
    * -->> stands for
    * -->> repeat the measure the # of times indicated above
    
    
    pre-verse
    
    |---------------------------|----------------------------|
    |--5----3----2---------3----|-5-----3--------------------|
    |---------------------------|-------------1--3-4---3-5---|
    |----3----3-------3------3--|----3----3------------------|
    
    |---------------------------|----------------------------|
    |--5----3----2---------3----|-5-----3--------------------|
    |---------------------------|----------------------------|
    |----3----3-------3------3--|----3----3------------------|
    
    
    verse…
  • Standard tuning 
    
    
       Intro: 
       e----------------------------------------------------------- 
       B----------------------------------------------------------- 
       G-----------------------------------------------------------…
  • Tuning: D A D D A D
    
    
    so here's the chords for this song:
          D A D D A D
    F     3 3 3 3 3 3
    G     5 5 5 5 5 5
    D XII 121212121212
    A     7 7 7 7 7 7
    
    
             G
    you look like gold to me
                F
    and I'm not to blind…
  • FIRST VERSE
    
    |   w  w  w  w  w                                                                
    G -------------------------------------------------------------------------------
    D -------------------------------------------------------------------------------
    A…
  • INTRO
    E-----------------------------------------------
    B-----------------------------------------------
    G-----------------------------------------------
    D------0---------0-------0---------0------------
    A----0---0-----0---0---0---0-----0---0----------
    E--0-------0-0-------0-------0-0-------0--------
    
    
    VERSES
    E-----------------------------------------------
    B-----------------------------------------------
    G-----------------------------------------------
    D-3/5-0-3-5-7-0-3/5-----------------------------
    A-------------------0-3h5-----------------------
    E-3/5-0-3-5-7-0-3/5-----------------------------
    
    
    CHOURS
    E-----------------------------------------------
    B-----------------------------------------------
    G-----------------------------------------------
    D-0-2-3-3-2-3-3-2-0-----------------------------
    A-0-2-3-3-2-3-3-2-0-----------------------------
    E-----------------------------------------------
    
    
    SOLO
    E-0-0-3/5-0-3/5/7-0-3/5----0--0-----------------
    B-0-0-3/5-0-3/5/7-0-3/5--5--5-------------------
    G-----------------------------------------------
    D-----------------------------------------------
    A-----------------------------------------------
    E-----------------------------------------------
    
    E-0-0-3/5-0-3/5/7-0-3/5----0--0-----------------
    B-0-0-3/5-0-3/5/7-0-3/5--0--0-------------------
    G-----------------------------------------------
    D-----------------------------------------------
    A-----------------------------------------------
    E-----------------------------------------------
    
    E-0-2-3-3-2-3-3-2-0-----------------------------
    B-0-2-3-3-2-3-3-2-0-----------------------------
    G-----------------------------------------------
    D-----------------------------------------------
    A-----------------------------------------------
    E-----------------------------------------------…
Наверх