Аккорды «Ber-linn»

Ber-linn
Свой первый концерт группа BER-LINN дала в конце 2000 года. За несколько месяцев до этого Gerash, вокалист и автор песен группы, записал с друзьями демо, в которое вошли такие песни, как "Ты" и "Последний новый день". В сентябре 2001 года группа впервые выступила на питерском фестивале «Звуки города», где заняла первое место, получив высокую оценку Артемия Троицкого, Сергея Шнурова и «Нашего радио». В том же году BER-LINN завоевали приз зрительских симпатий на фестивале «Спрайт… Читать полностью... Свой первый концерт группа BER-LINN дала в конце 2000 года. За несколько месяцев до этого Gerash, вокалист и автор песен группы, записал с друзьями демо, в которое вошли такие песни, как "Ты" и "Последний новый день". В сентябре 2001 года группа впервые выступила на питерском фестивале «Звуки города», где заняла первое место, получив высокую оценку Артемия Троицкого, Сергея Шнурова и «Нашего радио». В том же году BER-LINN завоевали приз зрительских симпатий на фестивале «Спрайт — жажда успеха», прошедшем на Дворцовой площади в Санкт-Петербурге. В 2002 году группа заняла первое место на фестивале «Продвижение» и выступала на одной сцене со многими звездами на финальной части «Продвижения» в Лужниках перед двадцатитысячной аудиторией. Следующая победа — в программе «Тотальное шоу» канала MTV, на котором в скором времени группа становится частым гостем. В том же году BER-LINN выступают в БКЗ Россия (г. Москва) и становятся единственной панк-группой, когда-либо игравшей в этом пафосном месте. В феврале 2003 BER-LINN попали в эфир радио «Максимум» с песней «Моя любовь на пятом этаже». Спустя несколько недель они оказались на вершине «Хит-парада двух столиц» радио «Максимум» и не покидали десятку лучших в течение полугода. Летом 2003 года группа выступала на фестивале, посвященном экстремальным видам спорта «Свежий ветер». Одновременно с записью альбома был снят клип на песню «Лида» (режиссер - Виталий Мухамедзянов, известный по работе с группами "Чайф", "Алиса", "Запрещенные барабанщики" "Кукрыниксы", "Тотал", "Мультfильмы"). В апреле 2003 был выпущен клип на песню «Моя любовь на пятом этаже», где в главной роли снялся музыкант группы СЕКРЕТ Максим Леонидов. Клип попадает на канал MTV и держится на вершине хит-парада в течение нескольких месяцев (режиссер - Богдан Дробязко, известный по работе с такими исполнителями, как Светлана Сурганова, "Ленинград", "Маркшейдер Кунст", "Кипелов", "Ва-Банкъ"). Дебютный альбом BER-LINN под названием ’’V.P.N.S.’’ поступил в продажу в августе 2003. Вторая песня с этого альбома, появившаяся в эфире радио "Максимум", называется "Ты", эта песня также попала в «Хит-парад двух столиц». В конце года группа выступает на фестивале "Модернизация" в "Ледовом" (Санкт-Петербург). После выхода дебютного альбома BER-LINN активно концертирует, становится участником различных фестивалей. В 2004 году вышел второй альбом «SMSы: Rаннее и Rедкое». Альбом состоит из редких песен и ремиксов на BER-LINN. А самая последняя по времени работа группы появилась в конце 2006 года под названием «Войналюбовь». Музыканты говорят, что их новые песни сильно отличаются от предыдущих работ, как по текстам (основная тема — выживание личности в обществе зрелищ), так и по музыке (смешение панка, эмо, рока, альтернативы). Песня "One Day Alone" с альбома "Войналюбовь" оказалась в ротации радио "Максимум" и несколько месяцев продержалась в двадцатке "Хит-парада двух столиц", а другие песни группы начинают звучать в эфире региональных станций: "Европы Плюс", "Нашего радио". В 2006-2009 группа продолжает выступать по клубам и концертным площадкам страны, участвует в фестивалях "Воздух", "Псковский Циклон" и др. В 2009 году специально для свих поклонников группа выпустила концертный мини-альбом. В 2010 году группа BER-LINN прекратила концертную деятельность. В апреле 2011 года вышел в свет новый альбом группы "ДЕТИ ВЕСНЫ". В разное время BER-LINN выступали с такими исполнителями и группами, как "Король и Шут", "Кипелов", "Чиж и Co", "Ночные Снайперы", Максим Леонидов, "Смысловые Галлюцинации", "Сплин", "Ленинград", "Ва-Банкъ", "Ляпис Трубецкой", Сергей Галанин, Markscheider Kunst, "Отпетые Мошенники", "Агата Кристи", "Звери", Дельфин, Найк Борзов, "Вопли Видоплясова", "Ногу Свело", "Алиса" и т.д. Скрыть...
Популярные аккорды Ber-linn:
алфавиту | просмотрам | случайно
  • Вступление: G D C D
    
    G                                 
    Твое фото на моем рабочем столе
    D
    Мы сидим вдвоем у сентября на крыле
    C                                      D 
    Люди машут нам руками где-то далеко на Земле.
    G…
  • G       C      Em      D
    Ты прекрасней всех на свете
    Каждый вечер в интернете
    Я ищу тебя - ты знаешь,
    Ничего не отвечаешь
    
    Проигрыш
    
    Твое фото на экране
    А моя рука в кармане
    Начинаю все сначала
    Мне тебя все время…
  •   Соло:
     / соло (x2)/
        
    E||---------------------------|---------------------------|---------------------------|---------------------------|
    B||---------------------------|---------------------------|---------------------------|---------------------------|
    G||---------------------------|---------------------------|---------------------------|---------------------------|
    D||---------------------------|---------------------------|---------------------------|---------------------------|
    A||-------5--3--2--3--5-------|-------5--3--2--3--5-------|-------5--3--2--3--5-------|-------2-----3--2--0-------|
    E||----3-----------------3----|----3-----------------3----|----3-----------------3----|----0-----0-----------3----|…
  • Em                    C    G                D      
       Откуда взялся этот день, пришел не слышно не заметно.
      Em                   C     G                     D
       Она спала и чья-то тень шагнула в дверь осенним ветром.…
  • F            Gm 
    Снова дом все тот же дом
        Am         Dm
    Как я ему он мне знаком
    Gm          A        Dm
    Он меня считает чудаком
    
             F           B
    Пришел опять сюда стоять
                  Bm
    Всю ночь не спать и ждать
    
    Под…
  • Вступление:
    
    Em | C | D | G | D  > 4 раза
    
     Em           C   D         G  D    
    Словно навсегда приковал себя
    Em            C   D            C
    Я к своим мечтам беспокойным снам
         D      G      Em
    Мой путь…
  •  Вступление и концовка:
     / соло /
     
      { вступление играть с первого такта и до последнего }
                                      { концовку сразу отсюда }
    E||---------------|---------------|-----------------------|-----------------------|-----------------------|
    B||---------------|---------------|-----------------------|-----------------------|-----------------------|
    G||---------------|---------------|--0--0--5--4------2----|--0--0--5--4------2----|--0--0--5--4------2----|
    D||---------------|---------------|-----------------------|-----------------------|-----------------------|
    A||---------------|---------------|-----------------------|-----------------------|-----------------------|
    E||---------------|---------------|-----------------------|-----------------------|-----------------------|…
  • Вступление:
         A                          A        E               
    G||--6--6--6--6--6--6--6--6--|--6--6--6--1--1--1--1--1--|
    D||--7--7--7--7--7--7--7--7--|--7--7--7--2--2--2--2--2--|
    A||--7--7--7--7--7--7--7--7--|--7--7--7--2--2--2--2--2--|
    E||--5--5--5--5--5--5--5--5--|--5--5--5--0--0--0--0--0--|…
  • Вступление
    1|-10-10-10-10-10-10-10-10--8-8-8-8-11-11-11-11-|
    2-----------------------------------|
    
    1|--10-10-10-10-10-10-10-10--6-6-6-6------------|
    2----------------------7-7-7-7-     |   
    
    Куплет: 
    С…
  • Вступление:
        Em      D       C       D       Em      D       C       D        
    E||-0-0-0-0-0-0-0-0-0-0-0-0-0-0-0-0-0-0-0-0-0-0-0-0-0-0-0-0-0-0-----|
    H||-0-0-0-0-3-3-1-1-1-1-1-1-3-3-1-1-0-0-0-0-3-3-1-1-1-1-1-1-3---3-1-|
    G||-0-0-0-0-2-2-0-0-0-0-0-0-2-2-0-0-0-0-0-0-2-2-0-0-0-0-0-0-2-------|
    D||-2-2-2-2-0-0-0-0-2-2-2-2-0-0-0-0-2-2-2-2-0-0-0-0-2-2-2-2-0-------|…
  • Вступление:
                                                             
         Em                         C
    E||--3--3--------------------|--------------------------|
    H||--------------------------|--------------------------|
    G||--------4--4--5--5--------|--7--7--------------------|…
  • Вступление:
    
    e:------------          -------
    B:------------          -------
    G:------------  3 times -------
    D:------------          -------
    A:--7-3-5-5---          -7-3-5-
    E:--5-1-7-3---          -5-1-3-
    
    куплет - 1 строка,…
  • Вступление: Em | C | G | D   > 4 раза
                 C | D | Dsus4
    
    Em
    Что можешь ты мне рассказать
    G
    Ведущий теленовостей
    Я обещал себе давно
    Устроить праздник без гостей
    
    Em          C
    Может быть несколько 
     G…
  • C 
    Знакомьтесь ее зовут Даша
    Am
    Про нее история наша
    F                G
    Мы познакомились весной
    Потом расстались летом
    Но давай не будем об этом
    Теперь она снова со мной
    F
    Нам не поможет микстура
    G
    Попали в цель стрелы Амура!
    
    Припев:
    C…
  • Вступление:F G Am Dm G F G Am F G
    
    C       G     Am    F      Dm       G 
    В плену своих идей ты не идешь на пляж 
    C       G     Am F         Dm     G
    Уходишь от людей двадцак тебе не дашь
    
    Припев:
     F  G Am…
  • Вступление:
        G         D        Em        D               >2 раза
    E||---------|--------|---------|-----------------|
    H||-8---10--|-8---7--|-8---10--|-8---10---7-8-10-|
    G||---7-----|---7----|---7-----|---7----7--------|
    D||---------|--------|---------|-----------------|
    A||---------|--------|---------|-----------------|
    E||---------|--------|---------|-----------------|…
  • Вступление: C G Am F G
    
    C   G        Am  F
    Она не смотрит НТВ
    Она не смотрит РТР
    Узнаешь сто новостей, ты позвонишь если ей 
    Окей компьютер окей 
    
    	C        G
    	Лида, Лида
    	Am       F 
    	синие глаза 
    	Лида, Лида 
    	Неба…
  • G                                            D            
    Как Шарль Перро с пером под ребром как Флобер Гюстав
                     D7
    Несу свой stuff несу свой крест железный
    G…
  • В начале:
    
    =======================================|
    E--------------------------------------|
    B--------------------------------------|
    G--------------------------------------|
    D------5-----5---5-----4-----5---5-----|
    A--3-3---3-3---3---5-5---5-5---5-------|
    E----------------------------------3---|
    
    Бас…
  • Вступление G | B | E | C
    
    G        B
    Не говори
    E        C
    Мне ничего
    Не покорив
    Что-то ушло
    
    	G          B
    	Оставь меня
    	E          C
    	Здесь одного
    	Солнце горит
    	Что-то ушло
  • G		   C
      Ты наверное влюблен 
    Am		  D
      Или просто заболел
      Ты может быть устал но ты 
      Потерял счет времени
    
    G   C   Am     D          G 
    	Как безумный Макс 5
            Как безумный Макс 6
            Как безумный Макс 7…
  • Вступление:
    Hm F#m | Hm A | Hm F#m | G A > 2 раза
    
    Hm           F#m
    На полу в пустой квартире
    Hm        G    A
    Я оставил свое тело,
    Hm          D    
    Вышел на прогулку после
    G    A
    Новостей.
    
    Вероятно слишком долго
    Я…
  • Вступление:
    E||--------------------------|---------------------------|
    H||--------------------------|---------------------------|
    G||--5-5-5-4--2--------4-4-4-|--2----------2-4-----5-5-5-|
    D||--------------------------|-----4--4-5----------------|
    
    -----------------------|---------------------|
    -----------------------|---------------------|
    --4---2----------4-----|---------------5-5-5-|
    ----------4---5--------|---------------------|
    
    -------------------------|--------------------------|
    -------------------------|--------------------------|
    --4--2--------4-4-4-2----|--------2-4------5-5-5-4--|
    -----------------------4-|---4-5--------------------|
    
    ----------------------||
    ----------------------||
    ---2------------------||
    -------5---4--5-------||…
  • С             G  
    Он идет по дороге
    G              A
    Он сегодня устал
    A                F
    Он сегодня весь вечер
    G          C 
    В микрофон кричал
    C          G  
    Он завел толпу
    G          A
    Он кричал: ХОЙ ХОЙ
    A         F
    Ну…
  • F      C      Dm     B     G C
    Я имя твое напишу на стекле
    Ты может быть вспомнишь о нас, обо мне
    О том как ходили вдвоем на каток
    О том как любили с тобой мы punk-rock
    
    	F  C       Dm    B       F    
    	  Водку, сникерс…
  • Intro + первый куплет
    e:-------------------------------------------------------------------
    H:-------------------------------------------------------------------
    G:---2-------2-------2-------2-------4-------4-------4--------4------…
  • A                       F#m
    Вечером вечером вечером встретил
    D                   E
    Я тебя встретил на Маяке
    Я тебя я тебя я тебя видел
    На обложке в "Огоньке"
    
    	A                       F#m
    	Что-то со мной - или любовь?
    	D…
Наверх