Аккорды «Biffy Clyro»

Biffy Clyro
В 1995 г., который можно считать годом рождения Biffy Clyro, будущий вокалист, гитарист и композитор Саймон Нил, 15 лет от роду, еще учился в общеобразовательной школе в шотландском городке Эре. Хотя с пяти лет он играл на скрипке, его призванием стала не классика, а рок-музыка: наслушавшись Nirvana, Weezer и Pearl Jam, он всерьез взялся за гитару в начале 95 года решил, что пора становиться настоящим фронтменом настоящей рок-группы. Уже через несколько недель после начала репетиций юная команда,… Читать полностью... В 1995 г., который можно считать годом рождения Biffy Clyro, будущий вокалист, гитарист и композитор Саймон Нил, 15 лет от роду, еще учился в общеобразовательной школе в шотландском городке Эре. Хотя с пяти лет он играл на скрипке, его призванием стала не классика, а рок-музыка: наслушавшись Nirvana, Weezer и Pearl Jam, он всерьез взялся за гитару в начале 95 года решил, что пора становиться настоящим фронтменом настоящей рок-группы. Уже через несколько недель после начала репетиций юная команда, которая называлась тогда Screwfish, сыграла свой первый публичный концерт. Тогда под началом Саймона объединились Бен Джонстон (Ben Johnston), барабанщик и вокалист, и некто Барри (Barry), числившийся басистом. Очень скоро его сменил Джеймс Джонстон (James Johnston), брат-близнец Бена. Бену и Джеймсу было всего по 14 лет. В 1997 г. повзрослевшее трио, уже переименованное в Biffy Clyro, в полном составе перебралось в Глазго. Братья Джонстоны поступили в колледж и осваивали ремесло звукоинженера, а Саймон Нил еще не до конца определился со своей будущей профессией и в течение года учился в университете по двум специальностям: музыкальная электроника и кино/телевидение. Музыка в конце концов победила, и все свое свободное время Нил начал отдавать команде. Его музыкальные вкусы с годами изменились. В частности, по его словам, очень сильное влияние оказало на него творчество Fugazi. Хотя известность команды с росла с каждым годом и на недостаток фанов им жаловаться не приходилось, серьезные предложения от рекорд-лейблов долго не поступали. В продвижении по крутым лестницам шоу-бизнеса музыкантам помог Ди Бол (Dee Bahl), который стал их менеджером и договорился о выпуске дебютного сингла на маленьком независимом лейбле с замечательным названием Babi Yaga. На обложке сингла, который вышел летом 1999 г., красовалось не менее замечательное слово "iname". Следующим релизом, появившимся летом 2000 г., стал мини-альбом тоже под любопытным названием - "thekidswhopoptodaywillrocktomorrow". В шотландском офисе Радио ВВС нашлись поклонники творчества Biffy Clyro, предоставив их песням эфирное время. Выход мини-альбома совпал с другим важным событием: в июне 2000 г. Biffy Clyro приехали на фестиваль T in the Park, чтобы выступить в числе других молодых команд, еще не подписавших контракт со звукозаписывающими компаниями. После этого концерта отношения с рекординговой индустрией сдвинулись с мертвой точки, и независимый лейбл Beggars Banquet, который представлял команду на фестивале, заключил с ней договор. В 2001-2002 г. лейбл переиздал отдельными синглами несколько треков Biffy Clyro и в марте 2002 г. выпустил полноформатный дебют "Blackened Sky", получивший очень доброжелательные отзывы в прессе, но не вызвавший фурора среди рок-фанов - слишком сложные задачи ставили перед собой музыканты, слишком большого внимания требовали от слушателя. Прошло чуть больше года, и в Великобритании был опубликован второй лонг-плей команды "The Vertigo of Bliss" (2003). Решившись поэкспериментировать с саундом, группа представила более смелый и интересный альбом, обогащенный в частности струнной секцией. Характерной чертой их стиля оставались постоянные смены ритма, громкости и даже жанра, иногда в пределах одной песни. Притихшую соло-гитару сменяла шквальная стена искаженного звука и сокрушительных ударных, а три вокала, перекликаясь и переплетаясь, лавировали между сложными гармониями и панковским визгом. Еще более насыщенными и продолжительными оказались и гастроли в поддержку "The Vertigo...", снова включавшие сет на фестивале T in the Park, куда шотландскую троицу регулярно приглашали. Через полтора года, осенью 2004 г., Biffy Clyro представили третью студийную работу "Infinity Land", как всегда, нетривиально построенную, сложную и динамичную. Эта сложность не отпугивала фанов, наоборот, только повышала авторитет команды. По другим вещам изголодался и Саймон Нил. Рамки существующего трио не вмещали всех его идей, и в 2004 году он создал сайд-проект Marmaduke Duke, который дебютировал через год с альбомом "The Magnificent Duke". Отправляясь в промо-тур для раскрутки Marmaduke Duke, Нил пригласил и обоих коллег по Biffy Clyro. Настоящая сказка в биографии Biffy Clyro началась в 2006 г., когда команда попала в поле зрения компании 14th Floor, одного из подразделений Warner Bros. Подготовив кавер песни Weezer "Buddy Holly" для сборника "High Voltage: A Brief History of Rock", издаваемого журналом "Kerrang!", Нил и Джонстоны отправились в Канаду, где проходила запись следующего студийного альбома. Изданный в мае 2007 г. промо-сингл "Saturday Superhouse" вызвал активный интерес меломанов и поднялся на 13-ю позицию британского поп-чарта. Финишировал в Тор 20 и еще один сингл "Living is a Problem, Because Everything Dies". Наконец в июне 2007 г. музыканты Biffy Clyro пережили свой звездный час: четвертый альбом "Puzzle" с первой же недели после релиза оккупировал вторую строку британского хит-парада. Если говорить о стилистике новой записи, то на этот раз команда решила отдохнуть от головоломных трюков ("совсем необязательно делать каждую песню такой сложной"), предпочтя более прямолинейный, однозначный рок-стиль. Это не значило, что музыканты работали вполсилы. Просто они научились выражать свои смелые идеи более простыми средствами. И их взросление было оценено по достоинству. Организаторы Kerrang! Awards 2007 выдвинули трио на соискание премии сразу в четырех номинациях: лучший альбом, лучший сингл ("Living Is а Problem..."), лучшая группа Великобритании и лучшая живая группа. Популярность коллектива росла как на дрожжах. Название Biffy Clyro можно было увидеть на афишах мировых рок-звезд - в качестве разогревающей команды они выходили на одну сцену с Muse, The Who, Rolling Stones, Red Hot Chili Peppers, My Chemical Romance. Их выступление летом 2007 г. слышали гости многих европейских фестивалей, включая T in the Park и Гластонбери. Скрыть...
Популярные аккорды Biffy Clyro:
алфавиту | просмотрам | случайно
  • intro
    
    G:-----------------------------------------------------
    D:-----------------------------------------------------
    A:----------------------------------------------------- x4
    D:-4-4-4-4-4-4-4-4-0-5-5-5-5-5-5-5-5-------------------
    
    G:-----------------------------------------------------
    D:-----------------------------------------------------
    A:-----------------------------------------------------…
  • INTRO VERSE
    E|------------------------------------------------------------
    B|------------------------------------------------------------
    G|------------------------------------------------------------
    D|------------------------------------------------------------…
  • Intro:
    G:-----------------------------------------------------
    D:-----------------------------------------------------
    A:-4-444-45-------------------------------------------- 
    D:-----------5-555-5-0-000-0-7-777-7-4-444-4-5-555-5-7-
    
    0:42
    G:--------------------------------
    D:--------------------------------
    A:-5-555-5------------------------…
  • Intro:
    e|-7h99-7h99-7h99-7-9-8-5h77-5h77-5h77-5-7-6|
    B|------------------------------------------|
    G|------------------------------------------|
    D|------------------------------------------|x2
    A|------------------------------------------|
    E|------------------------------------------|
    
    then…
  • e|-------------------------------------------------------------------
    b|-------------------------------------------------------------------
    g|---0-0-0-0---------------------------------------------------------
    d|---2-2-2-2---------------------------------------------------------
    a|-------------------------------------------------------------------
    E|-------------------------------------------------------------------
    
    verse
    e|-------------------------------------------------------------------
    b|-----------0----------0----------0---------------------------------
    g|--------------------------------------------0----------------------
    d|---5-5-5-5----5-5-5-5----2-2-2-2----4-4-4-4------------------------
    a|-------------------------------------------------------------------
    E|-------------------------------------------------------------------
    
    e|-------------------------------------------------------------------
    b|-----------0----------0----------0---------------------------------
    g|--------------------------------------------0----------------------
    d|---5-5-5-5----5-5-5-5----2-2-2-2----4-4-4-4------------------------
    a|-------------------------------------------------------------------
    E|-------------------------------------------------------------------
    
    you…
  • e|-------x--x--x--x--x--x--x--x--x--x--x--x-------x---x---x-----x---x---x---x-|
    B|-------0--0--0--0--0--0--0--0--0--0--0--0-------x---x---x-----x---x---x---x-|
    G|--7----0--0--0--0--0--0--0--0--0--0--0--0---7---x---x---x----11---x---x---x-|
    D|--0----0--0--0--4--4--4--0--0--0--4--4--4---0---12--12--12----9--12--12--12-|
    A|--x----x--x--x--x--x--x--x--x--x--x--x--x---x---10--10--10----7--10--10--10-|
    E|--7----3--3--3--3--3--3--3--3--3--3--3--3---7---8---8---8--------8---8---8--|…
  • verse
    e|-------------------------------------------------------------------
    b|-------------------------------------------------------------------
    g|-------------------------4--------4--------------------------------
    d|-------9-------9-----------5--------5------------------------------
    a|-----7-------7------------------3----------------------------------
    E|---0-------9----------3--------------------------------------------
    
    look…
  • INTRO
    E|x-x-x-x-----------------------------------------------------
    B|x-x-x-x-----------------------------------------------------
    G|x-x-x-x-9-9-2-2-9-9-2-2-------------------------------------
    D|x-x-x-x-7-7-0-0-7-7-0-0-------------------------------------x1
    A|x-x-x-x-7-7-0-0-7-7-0-0-------------------------------------
    D|x-x-x-x-7-7-0-0-7-7-0-0-------------------------------------
    
    E|------------------------------------------------------------
    B|------------------------------------------------------------
    G|10--9---9---9---10--9---9-9-9-9-10--9---9---9---3-----------x1
    D|8---8---7---0---8---8---7-0-7-0-8---8---7---0---1-----------
    A|8---8---7---0---8---8---7-0-7-0-8---8---7---0---1-----------
    D|8---8---7---0---8---8---7-0-7-0-8---8---7---0---1-----------
    
    E|----------------------------------------------4-------------
    B|----------------------------------------------4-------------
    G|----19-------19-------17-------17-------------4-------------x1
    D|0-15--15-0-15--15-0-15--15-0-15--15---3---830-4-------------
    A|--------------------------------------3---830-4-------------
    D|--------------------------------------3---830-4-------------…
  • Verse
    gtr1(clean)
    e|-------------------------------------
    b|-------------------------------------
    g|-------------------------------------
    d|---0-0-0-0-0-0-0-0---4-4-4---2-2-2---
    a|---0-0-0-0-0-0-0-0---2-2-2---0-0-0---
    D|---0-0-0-0-0-0-0-0-------------------
    
    gtr2(clean)
    e|-------------------------------------
    b|-------------------------------------
    g|---9-9-9-11111111111111111111111111--
    d|-------------------------------------
    a|---7-7-7-9-9-9-9-9-9-9-9-9-9-9-9-9---
    D|-------------------------------------
    
    
    Bridge(clean)
    e|-----------------------
    b|-------7-------7-------
    g|-----------------------
    d|---5---5---5---5---etc-
    a|---5---5---5---5-------
    D|---5---5---5---5-------
    
    
    Verse
    
    Bridge
    
    Fill
    gtr1(clean)
    e|----------------------
    b|----------------------
    g|----------------------
    d|---9-9---5/7--7-------
    a|---9-9---5/7--7-------
    D|---9-9---5/7--7-------x4
    
    e|----------------------
    b|----------------------
    g|----------------------
    d|---14---12------------
    a|---14---12------------
    D|---14---12-------------x4
    
    gtr2(clean)
    e|----------------------
    b|----------------------
    g|----------------------
    d|---11-9---5/7-7-------
    a|----------------------
    D|----------------------x4
    
    e|----------------------
    b|----------------------
    g|----------------------
    d|---14---12------------
    a|---14---12------------
    D|---14---12-------------x4
    
    Gtr1(dist)
    e|-----------------
    b|-----------------
    g|-----------------
    d|---5--5-5--5-5---
    a|---5--5-5--5-5---
    D|---5--5-5--5-5---
    
    Gtr2(dist)
    e|---------------------
    b|---------------------
    g|---7-7-7-7-7-7-7-7---
    d|---------------------
    a|---5-5-5-5-5-5-5-5---
    D|---------------------
    
    Pre-Chorus
    Gtr1(dist)
    e|-----------------------------------------------------
    b|-----------------------------------------------------
    g|-----------------------------------------------------
    d|---2-2-2-2-2-2-2-2-0-0-0-0-0-0-0-0--5--5-5--5--5-5---
    a|---2-2-2-2-2-2-2-2-0-0-0-0-0-0-0-0--5--5-5--5--5-5---
    D|---2-2-2-2-2-2-2-2-0-0-0-0-0-0-0-0--5--5-5--5--5-5---
    
    Gtr2(dist)
    e|-------------------------------------------------------------------
    b|-------------------------------------------------------------------
    g|---9-9-9-9-9-9-9-9-11111111111111117-7-7-7-7-7-7-7-7-7-7-7-7-7-7-7-
    d|-------------------------------------------------------------------
    a|---7-7-7-7-7-7-7-7-9-9-9-9-9-9-9-9-5-5-5-5-5-5-5-5-5-5-5-5-5-5-5-5-
    D|-------------------------------------------------------------------
    
    Chorus
    (dist)
    e|------------------------------------------------------------------
    b|------------------------------------------------------------------
    g|-------------------6-6-6-6-6-6-6-6-9-9-9-9-9-11-6-6-6-6-7-7-7-7---
    d|---7-7-7-7-7-7-7-7-5-5-5-5-5-5-5-5-9-9-9-9-9-9--5-5-5-5-5-5-5-5---
    a|---5-5-5-5-5-5-5-5-5-5-5-5-5-5-5-5-9-9-9-9-9-9--5-5-5-5-5-5-5-5---
    D|-------------------5-5-5-5-5-5-5-5-9-9-9-9-9-9--5-5-5-5-5-5-5-5---x4
    
    Fill2
    
    Post-Chorus2
    Gtr1(dist)
    e|--------------------------------------------------
    b|--------------------------------------------------
    g|--------------------------------------------------
    d|---0-0-0-0-0-0-0-0-0-0-0-0-0-0-0-0----------------
    a|---0-0-0-0-0-0-0-0-0-0-0-0-0-0-0-0-keep…
  • Intro
    
    E|-------------------------------------------|
    B|-------------------------------------------|
    G|--97--7--7--7--79--96--6--6--6--612|
    D|-------------------------------------------|
    A|--75--5--5--5--57--74--4--4--4--410|
    D|-------------------------------------------|
    
    
    
    E|----------------------------------------------|
    B|----------------------------------------------|
    G|-12--12--12--12--12--1211--11--11--11-------|
    D|-----------------------------------------0----|
    A|-10--10--10--10--10--109---9---9---9--------|
    D|----------------------------------------------|
    
    
    
    E|-----------------------------------------------------------------|
    B|-----------------------------------------------------------------|
    G|-----------------------------------------------------------------|
    D|-----------------------------------------------------------------|
    A|----12-------12-12----12-------12-12-----10--------7--7-----5----|
    D|-11----11--0-------11----11--0--------9-----9--7--------4------4-|
    
    
    
    E|--------------------------------------------|
    B|--------------------------------------------|
    G|--------------------------------------------|
    D|--------------------------------------------|
    A|-----5--------5--5-----5--5-----5--5--------|…
  • Drop D Tuning (high to low): E B G D A D
    
    Intro (clean)
    
    |---------------------------------------|
    |---------------------------------------|
    |---------------------------------------|
    |-------3-3-3--------3-3-3-------3--3---|
    |---0---5-5-5----0---5-5-5---0---5--5---|
    |-0---0-3-3-3--0---0-3-3-3-0---0-3--3---|
    
    |--------------------------------------|
    |--------------------------------------|
    |--------------------------------------|
    |------3-3-3--------3-3-3-------3--3---|
    |--0---5-5-5----0---5-5-5---0---5--5---|
    |----0-3-3-3--0---0-3-3-3-0---0-3--3---|
    
    Verse
    
    |-----------------|
    |-----------------|
    |-----------------|…
  • Intro
    e|-----------------------|
    B|-----------------------|
    G|-----------------------|
    D|-----0---4-------------|x11
    A|---0---3---3-----------|
    D|0----------------------|
    
    A|--------------------------------------------------|
    B|--------------------------------------------------|
    G|--------------------------------------------------|
    D|-0-2-3-3----------0---4-------0---4----0-1-2-2-2--|x1
    A|-0-2-3-3--------0---3---3---0---3----3-0-1-2-2-2--|
    D|-0-2-3-3------0-----------0------------0-1-2-2-2--|…
  • Standard Tuning in 'Drop D'
    
    Intro (drums)
    
    E: -----------------
    B: -----------------
    G: -----------------
    D: --999999999999999   UNTIL BASS COMES IN
    A: --999999999999999
    D: --999999999999999
    
    Bass Part
    
    G:----------------------
    D:----------------------…
  • verse
    e|----------------------------------------------------------------
    b|----------------------------------------------------------------
    g|---5--5-5-5-5-4--5-5-5-5--5--5-5-5-5--4--5-5-5-5--9--9-9-9-9--9-
    d|---5--5-5-5-5-5--5-5-5-5--5--5-5-5-5--5--5-5-5-5--9--9-9-9-9--9-
    a|---3--3-3-3-3-3--3-3-3-3--3--3-3-3-3--3--3-3-3-3--7--7-7-7-7--7-
    E|----------------------------------------------------------------
    
    e|----------------------------------------------------------------
    b|----------------------------------------------------------------
    g|---9-9-9-9--5--5-5-5-5-5--5-5-5-5-------------------------------
    d|---9-9-9-9--5--5-5-5-5-5--5-5-5-5----(x…
  • Tuning: Drop D (d a d g b e)
    
    e--9--12--10--7--10----9-
    b-10--14--12--8--12---10-
    g------------------------
    d------------------------
    a------------------------
    d------------------------
    
    e--9--12--10--9--7-/-14---9--
    b-10--14--12-10--8-/-15--10--
    g----------------------------
    d----------------------------
    a----------------------------
    d----------------------------
    
    
    e-----------------------
    b-----------------------
    g--6-6h7-7-6-7-6-2-2h4-2
    d-----------------------
    a-----------------------
    d-----------------------
    
    e---------------------------------------
    b---------------------------------------
    g--6-7-6--2-4-2-/-6-7-6--2-4-2-/-6-7-6
    d---------------------------------------
    a---------------------------------------
    d---------------------------------------
    
    e-----------------------
    b-----------------------
    g--7-7-7----------------
    d--7-7-7--12-12--12---
    a--5-4-5--10--9--12---
    d------5---------12---
    
    e---------------------------------------------------------------------------
    b---------------------------------------------------------------------------
    g-6-6-6h7-7-6-7-6--2-4-2-/-6-7-6--2-4-2-/-6-7-6-/-14-16-14--6-7-6--2-4-2
    d---------------------------------------------------------------------------
    a---------------------------------------------------------------------------
    d---------------------------------------------------------------------------
    
    
    
    
    Violin…
  • e----------------------------0-0-0-0-0-0-
    b-1-1-1-1--1-1-1-1--1-1-1-1--5-5-5-5-5-5-
    g-0-0-0-0--0-0-0-0--0-0-0-0--4-4-4-4-4-4-
    d-2-2-2-2--3-3-3-3--2-2-2-2--------------
    a-3-3-3-3--3-3-3-3--3-3-3-3--------------
    e----------------------------------------
    
    e-------------------------------------
    b-1-1-1-1--1-1-1-1--1-1-1-1--1-1-1-1--
    g-0-0-0-0--0-0-0-0--0-0-0-0--0-0-0-0--
    d-2-2-2-2--3-3-3-3--2-2-2-2--3-3-3-3--
    a-3-3-3-3--3-3-3-3--3-3-3-3--3-3-3-3--
    d-------------------------------------
    
    e---------------------------------------
    b-1-1-1-1--1-1-1-1--1-1-1-1-1-0-0-1-0-0-
    g-0-0-0-0--0-0-0-0--0-0-0-0-0-0-0-0-0-0-
    d-2-2-2-2--3-3-3-3--2-2-2-2-3-3-3-3-3-3-
    a-3-3-3-3--3-3-3-3--3-3-3-3-3-3-3-3-3-3-
    d---------------------------------------
    
    e----------------
    b----------------
    g-12--14--16--19-
    d-10--12--14--17-
    a-10--12--14--17-
    d-10--12--14--17-
    
    e-3-3-3-3--3-3-3-3--0-0-0-0-
    b-3-3-3-3--1-1-1-1--1-1-1-1-
    g-0-0-0-0--0-0-0-0--2-2-2-2-
    d-0-0-0-0--2-2-2-2--2-2-2-2-
    a-5-5-5-5--3-3-3-3--0-0-0-0-
    d-5-5-5-5-------------------
    
    e-3-3-3-3--3-3-3-3--0-0-0-0-
    b-3-3-3-3--1-1-1-1--1-1-1-1-
    g-0-0-0-0--0-0-0-0--2-2-2-2-
    d-0-0-0-0--2-2-2-2--2-2-2-2-
    a-5-5-5-5--3-3-3-3--0-0-0-0-
    d-5-5-5-5-------------------
    
    e-3-3-3-3--3-3-3-3--0-0-0-0-
    b-3-3-3-3--1-1-1-1--1-1-1-1-
    g-0-0-0-0--0-0-0-0--2-2-2-2-
    d-0-0-0-0--2-2-2-2--2-2-2-2-
    a-5-5-5-5--3-3-3-3--0-0-0-0-
    d-5-5-5-5-------------------
    
    e-------------------------------
    b-------------------------------
    g-------------------14-14-14-14-
    d-12-12-12-12-12-12-12-12-12-12-
    a-12-12-12-12-12-12-12-12-12-12-
    d-12-12-12-12-12-12-12-12-12-12-
    
    e---------------------
    b-1-1-1-1--1-1-1-1--3-
    g-0-0-0-0--0-0-0-0--2-
    d-2-2-2-2--3-3-3-3--0-
    a-3-3-3-3--3-3-3-3--0-
    d-------------------0-
    
    e--------------------------------
    b-1-1-1-1--1-1-1-1--1-1-1-1-1-0--
    g-0-0-0-0--0-0-0-0--0-0-0-0-0-0--
    d-2-2-2-2--3-3-3-3--2-2-2-2-3-3--
    a-3-3-3-3--3-3-3-3--3-3-3-3-3-3--
    d--------------------------------
    
    e-------------------------------------
    b-1-1-1-1--1-1-1-1--1-1-1-1--1-1-1-1--
    g-0-0-0-0--0-0-0-0--0-0-0-0--0-0-0-0--
    d-2-2-2-2--3-3-3-3--2-2-2-2--3-3-3-3--
    a-3-3-3-3--3-3-3-3--3-3-3-3--3-3-3-3--
    d-------------------------------------
    
    e---------------------------------------
    b-1-1-1-1--1-1-1-1--1-1-1-1-1-0-0-1-0-0-
    g-0-0-0-0--0-0-0-0--0-0-0-0-0-0-0-0-0-0-
    d-2-2-2-2--3-3-3-3--2-2-2-2-3-3-3-3-3-3-
    a-3-3-3-3--3-3-3-3--3-3-3-3-3-3-3-3-3-3-
    d---------------------------------------
    
    
    e----------------
    b----------------
    g-12--14--16--19-
    d-10--12--14--17-
    a-10--12--14--17-
    d-10--12--14--17-
    
    e-3-3-3-3--3-3-3-3--0-0-0-0-
    b-3-3-3-3--1-1-1-1--1-1-1-1-
    g-0-0-0-0--0-0-0-0--2-2-2-2-
    d-0-0-0-0--2-2-2-2--2-2-2-2-
    a-5-5-5-5--3-3-3-3--0-0-0-0-
    d-5-5-5-5-------------------
    
    e-3-3-3-3--3-3-3-3--0-0-0-0-
    b-3-3-3-3--1-1-1-1--1-1-1-1-
    g-0-0-0-0--0-0-0-0--2-2-2-2-
    d-0-0-0-0--2-2-2-2--2-2-2-2-
    a-5-5-5-5--3-3-3-3--0-0-0-0-
    d-5-5-5-5-------------------
    
    e-3-3-3-3--3-3-3-3--0-0-0-0-
    b-3-3-3-3--1-1-1-1--1-1-1-1-
    g-0-0-0-0--0-0-0-0--2-2-2-2-
    d-0-0-0-0--2-2-2-2--2-2-2-2-
    a-5-5-5-5--3-3-3-3--0-0-0-0-
    d-5-5-5-5-------------------
    
    e-------------------------------
    b-------------------------------
    g-------------------14-14-14-14-
    d-12-12-12-12-12-12-12-12-12-12-
    a-12-12-12-12-12-12-12-12-12-12-
    d-12-12-12-12-12-12-12-12-12-12-
    
    e-------------------------------------
    b-------------------------------------
    g-11-11-11-11-11-11-11-11-11-14-14-14-
    d-9--9--9--9--9--9--9--9--9--12-12-12-
    a-9--9--9--9--9--9--9--9--9--12-12-12-
    d-9--9--9--9--9--9--9--9--9--12-12-12-
    
    e-----------------------------
    b-----------------------------
    g-7-7-7-6-6-6-5-5-5--14-14-14-
    d-5-5-5-5-5-5-5-5-5--12-12-12-
    a-5-5-5-5-5-5-5-5-5--12-12-12-
    d-5-5-5-5-5-5-5-5-5--12-12-12-
    
    e-------------------------------------
    b-------------------------------------
    g-11-11-11-11-11-11-11-11-11-14-14-14-
    d-9--9--9--9--9--9--9--9--9--12-12-12-
    a-9--9--9--9--9--9--9--9--9--12-12-12-
    d-9--9--9--9--9--9--9--9--9--12-12-12-
    
    e-----------------------------
    b-----------------------------
    g-7-7-7-6-6-6-5-5-5--14-14-14-
    d-5-5-5-5-5-5-5-5-5--12-12-12-
    a-5-5-5-5-5-5-5-5-5--12-12-12-
    d-5-5-5-5-5-5-5-5-5--12-12-12-
    
    e-------------------------------------
    b-------------------------------------
    g-11-11-11-11-11-11-11-11-11-14-14-14-
    d-9--9--9--9--9--9--9--9--9--12-12-12-
    a-9--9--9--9--9--9--9--9--9--12-12-12-
    d-9--9--9--9--9--9--9--9--9--12-12-12-
    
    e-----------------------------
    b-----------------------------
    g-7-7-7-6-6-6-5-5-5--14-14-14-
    d-5-5-5-5-5-5-5-5-5--12-12-12-
    a-5-5-5-5-5-5-5-5-5--12-12-12-
    d-5-5-5-5-5-5-5-5-5--12-12-12-
    
    e-------------------------------------
    b-------------------------------------
    g-11-11-11-11-11-11-11-11-11-14-14-14-
    d-9--9--9--9--9--9--9--9--9--12-12-12-
    a-9--9--9--9--9--9--9--9--9--12-12-12-
    d-9--9--9--9--9--9--9--9--9--12-12-12-
    
    e-----------------------------
    b-----------------------------
    g-7-7-7-6-6-6-5-5-5--14-14-14-
    d-5-5-5-5-5-5-5-5-5--12-12-12-
    a-5-5-5-5-5-5-5-5-5--12-12-12-
    d-5-5-5-5-5-5-5-5-5--12-12-12-
    
    
    e-------------------------------
    b-------------------------------
    g-----14---------14------14-----
    d-0-0----0--0-12----12-14--14---
    a-------------------------------
    d-------------------------------
    
    e-----------------------------------
    b-----------------------------------
    g-----14---------14-------11-12-14--
    d-0-0----0--0-12----12-14-----------
    a-----------------------------------
    d-----------------------------------
    
    e-------------------------------
    b-------------------------------
    g-----14---------14------14-----
    d-0-0----0--0-12----12-14--14---
    a-------------------------------
    d-------------------------------
    
    e-----------------------------------
    b-----------------------------------
    g-----14---------14-------11-12-14--
    d-0-0----0--0-12----12-14-----------
    a-----------------------------------
    d-----------------------------------
    
    e-------------------------------
    b-------------------------------
    g-----14---------14------14-----
    d-0-0----0--0-12----12-14--14---
    a-------------------------------
    d-------------------------------
    
    e-----------------------------------
    b-----------------------------------
    g-----14---------14-------11-12-14--
    d-0-0----0--0-12----12-14-----------
    a-----------------------------------
    d-----------------------------------
    
    e-------------------------------
    b-------------------------------
    g-----14---------14------14-----
    d-0-0----0--0-12----12-14--14---
    a-------------------------------
    d-------------------------------
    
    e-----------------------------------
    b-----------------------------------
    g-----14---------14-------11-12-14--
    d-0-0----0--0-12----12-14-----------
    a-----------------------------------
    d-----------------------------------
    
    e---------------------------
    b---------------------------
    g--12--11------12-----------
    d----------12---------------
    a---------------------------
    d---------------------------
    
    think…
  • ------------------------------------------
    ------------------------------------------
    ---x---x-10---x-10-10--x-10-10-10--5-5-5--
    ---x---x------x--------x------------------
    ---x---x-8----x-8--8---x-8--8--8---3-3-3--
    ------------------------------------------
    
    -----------…
  • INTRO - HARMONICS
    E|12----12----------------------------------------------------
    B|---12----12-------------------------------------------------
    G|------------------------------------------------------------
    D|------------------------------------------------------------
    A|------------------------------------------------------------
    D|------------------------------------------------------------
    
    THIS…
  • e----------------------------------------------------------------------------------------------
    B----10-10-10-10-10-10-10-10-10-10-10-10-10-10-10--9-9-9--9--9--9--9--9--9--9--9--9--9--9--9//-
    G-----9--9--9--9--9--9--9--9--9--9--9--9--9--9--9--9-9-9--9--9--9--9--9--9--9--9--9--9--9--9//-
    D-----7--7--7--7--7--7--7--7--7--7--7--7--7--7--7--7-7-7--7--7--7--7--7--7--7--7--7--7--7--7//-
    A----------------------------------------------------------------------------------------------
    D----------------------------------------------------------------------------------------------
    
    
    
    Main…
  • intro
    
    e|-----------------------------------------------------------------
    b|-----------------------------------------------------------------
    g|---7-------5-5-5-11/12-11-9-9-9-----14---------------------------
    d|-----7-----------------------------------------------------------
    a|--------5--3-3-3--9/10-9--7-7-7-----12---------------------------
    D|-----------------------------------------------------------------
    
    e|-----------------------------------------------------------------
    b|-----------------------------------------------------------------
    g|---7-7-7--5-5-5-11/12-11-9-9-9-----14----------------------------
    d|-----------------------------------------------(x…
  • (0:02)
    e|-----------
    b|-------1---
    g|-----4-----
    d|---3-------
    a|-----------
    D|-----------
    
    g|------------------------------------------
    d|------------------------------------------
    a|----------------4------11-----10------5---
    E|------------------------------------------
    REPEAT!
    
    (0:32)
    e|-----------
    b|-----------
    g|-------0---
    d|-----3-----
    a|---3-------
    D|-----------
    
    g|---------------------------
    d|---------------------------
    a|-----------5-----2----3----
    D|---------------------------
    repeat…
  • H : harmonic
    b : bend
    x : mute the string
    h : hammer on
    
    
    Intro (0:03)
             H H H
    e|---------------------------------------------------------------
    b|---------------------------------------------------------------
    g|-----------------------4b(5)-----0----------------0--4--0------
    d|---(2)-x-x-x-------------------------------0--4------------4---
    a|---(2)-x-x-x---------------------------------------------------
    D|---(2)-x-x-x---------------------------------------------------
    
    Verse…
  • Standard Tuning (high to low): E B G D A E
    
    Intro 
    
    G1 (clean)
    
    |----------------------------------------------|
    |----------------------------------------------|
    |----------------------------------------------|
    |--9-9-10-10101010--7-7-9-9999--5-5-7-7777-----|
    |--7-7-10-10101010--5-5-9-9999--3-3-7-7777-----|
    |--0-0--8--8-8-8-8--0-0-7-7777--0-0-5-5555-----|
    
    Next…
Наверх