Аккорды «Big Sugar»

Big Sugar
Big Sugar - канадская блюз-рок/регги , они были активны с 1991 г. до 2004 г. и снова с апреля 2010 г. Состав: Gordie Johnson Garry Lowe Kelly Hoppe Stephane Bodean DJ Friendlyness Big Sugar - канадская блюз-рок/регги , они были активны с 1991 г. до 2004 г. и снова с апреля 2010 г. Состав: Gordie Johnson Garry Lowe Kelly Hoppe Stephane Bodean DJ Friendlyness Скрыть...
Популярные аккорды Big Sugar:
алфавиту | просмотрам | случайно
  • Verse / Chorus Bass Rhythm
    e----------------------------------------------------------------
    B----------------------------------------------------------------
    G----------------------------------------------------------------
    D----------------------------------------------------------------
    A----------------------3-3-3-1-3-3--1----------------------------
    E--3-3-3-1-3-3--1------------------------------------------------
    
    
    Verse…
  • Tuning: Dropped down one whole step. DGCFAD 
    
    
    Intro rhythm/ chorus:
        C G D E A7 E   D
    D---------------------------
    A---------------------------
    F--2--2--1-----2-2-------1--
    C--0--2--2--4--4-4--4----2--
    G--0--0--2--4--2-2--4----2--
    D-----------2-------2-------
    
    Intro…
  • Intro:
    
    Verse:
     1: 
    D|-------------------------------------------------------|
    A|-------------------------------------------------------|
    F|-------------------------------------------------------|
    C|-------------------------------------------------------|
    G|--7-7-7--7--5-5-5--5--4-4-4--4—-2-2-2--2---------------|
    C|-------------------------------------------------------|…
  • Tuning: Standard Concert Pitch
    
    
    G|---------------------------------------------------------------|
    D|---------------------------------------------------------------|
    A|--3------------------------------------------------------------|
    E|-----3--5--1---------------------------------------------------|…
  • Tuning: Open E
    
    
    Intro: Basic idea of what he plays the ending of it can be found in the
    main rhythm riff. 
    e|---------------------------------------|
    B|---------------------------------------|
    A|--/10-10-8/10-6/10--/10-10-8/10-15/10--|
    E|---------------------------------------|
    B|---------------------------------------|
    E|---------------------------------------|
    
    Basic…
  • Tuning: Drop C (Down one whole step in drop D tuning)
    
    
    Intro:
    D|-----------------------|
    A|-----------------------|
    F|-----------------------|
    C|-----------------------|
    G|--4-5-6--4-5-6--4-5-6--|
    C|-----------------------|
    
    Main…
  • (Beginning riff)
    
    ------------------------------------------------------------------------------|
    ------------------------------------------------------------------------------|
    ------------------------------------------------------------------------------|
    -----------------3--5--3-----------3--5--3------------------------------------|
    --------1--3--5-----------5--3--5-----------5--3--1---------------------------|
    --3--5------------------------------------------------------------------------|
    
    
    -----------------------------------------------------|
    -----------------------------------------------------|
    -----------------------------------------------------|
    -----------------3--5--3-----------3--5--3-----------|
    --------1--3--5-----------5--3--5-----------5--3--1--|hold…
  • G ----------------------|
    D ---------------------*|
    A ---000--0---0---000--*|
    E ----------------------|
    
    
    G -----------------------------------|
    D -----------------------------------|
    A ---77--5--3-3--5--3-----000--000---|…
  • Intro:
    D-----------------------
    A-----------------------
    F--2-2-2-2-2-x-2-x-2-2--
    C--2-2-2-2-2-x-2-x-2-2--
    G--0-0-0-0-0-x-0-x-0-0--
    D-----------------------
    
    Verse: Play 1st part 3 times end on 2nd part 
    D-----------------------|---3------------
    A-----------------------|---3-------3----
    F--2-2-2-2-2-x-2-x-2-2--|---0-------2----
    C--2-2-2-2-2-x-2-x-2-2--|---0-------0----
    G--0-0-0-0-0-x-0-x-0-0--|---2------------
    D-----------------------|---3------------
    
    3rd…
  • intro part 1
    E------------------------------------
    B------------------------------------
    G------------------------------------
    D-----------------------3--5---3--5--
    A-------3--5--3--5-------------------
    E------------------------------------
    intro…
  • Intro: This is a bass and clean electric guitar together.
    D|--------|-----------------------|
    A|--------|-----------------------|
    F|--------|-*-------------------*-|
    C|--------|-----------------------|
    G|--5--7--|-*-5-2-5-2-5-2--5--7-*-|
    C|--------|-----------------------|
    
    This…
Наверх