Аккорды «Big Wreck»

Big Wreck
Страна: США Начало карьеры: 1993 г., Бостон, Массачусетс Номинации: Премия «Джуно» в номинации «Рок-альбом года» Участники: Ian Thornley – vocals/guitar Brian Doherty – guitars Paulo Neta – guitars Chuck Keeping – drums Dave McMillan - Bass Страна: США Начало карьеры: 1993 г., Бостон, Массачусетс Номинации: Премия «Джуно» в номинации «Рок-альбом года» Участники: Ian Thornley – vocals/guitar Brian Doherty – guitars Paulo Neta – guitars Chuck Keeping – drums Dave McMillan - Bass Скрыть...
Популярные аккорды Big Wreck:
алфавиту | просмотрам | случайно
  • TUNING - Drop D down half a step (Db Ab Db Fb Ab Db)
    
    
    -|----0-----------------------|---0-----------------------|-------------------
    -|------3p0-------------------|-----3p0-------------------|-------------------
    -|----------2p0---------------|---------2p0---------------|-------------------
    -|--------------2h3-0-------0-|-------------2h3-0-------0-|-------------------
    -|--------------------0h3-3---|-------------------0h3-3---|-------------------
    -|-0--------------------------|-3-------------------------|-------------------
    THE…
  • Tuning : Db
             Bb
             Gb
             Db
             Gb
             B
    
    
    Pretty close, missing a few parts but should give you a good idea of the song.
    
    Intro
    
    -3-3-2-2-0-------------------------------------
    -------------------------3-----3---------------
    --------------3-3s2p0-2s4---2s4--4~-2b3b2b3b2p0
    -3-3-2-2-0-------------------------------------
    --------------3-3s2p0--------------------------
    -----------------------------------------------
    
    ---------------------------------------|
    -5-xx----5~-----xxx-7------------------|
    -5-xx-5--5~-----xxx-7-x-7-x-99----6~--|
    -5-xx-3--5~-----xxx-7-x-5-x-77----4~--|
    ------3---------------x-5-x-77----4~--|
    
    Then…
  • Intro: tremolo effects
    
    D-5-0-0-5-0-0-5-0-4-0-7-0-4-0-0-0-|-5-0-0-5-0-0-5-0-4-0-7-0-4-0-0-0-|
    G-0-0-0-0-0-0-0-0-0-0-0-0-0-0-0-0-|-0-0-0-0-0-0-0-0-0-0-0-0-0-0-0-0-|
    G-0-------------------------------|-0-------------------------------|
    D---------------------------------|---------------------------------|
    G---------------------------------|---------------------------------|
    D---------------------------------|---------------------------------|
    
    D-5-0-0-5-0-0-5-0-4-0-7-0-4-0-0-0-|-5-0-0-5-0-0-5-0-4-0-7-0-4-0-0-0-|
    G-0-0-0-0-0-0-0-0-0-0-0-0-0-0-0-0-|-0-0-0-0-0-0-0-0-0-0-0-0-0-0-0-0-|
    G-5-------------------------------|-5-----------5---4---------------|
    D---------------------------------|---------------------------------|
    G---------------------------------|---------------------------------|
    D---------------------------------|---------------------------------|
    
    D-0-----0-----0-------------------|-0-----0-----0-------------------|
    G-5-----4-----2-------------------|-5-----4-----2-------------------|
    G-0-0-0-0-0-0-0-0-0-0-0-0-0-0-0-0-|-0-0-0-0-0-0-0-0-0-0-0-0-0-0-0-0-|
    D---------------------------------|---------------------------------|
    G---------------------------------|---------------------------------|
    D---------------------------------|---------------------------------|
    
    D-0-----0---0-----0-----0---------|-0---------------0-0-0-0-0-0-0-0-|
    G-5-----4---5/7---2-----2/4-------|-0---------------0-0-0-0-0-0-0-0-|
    G-0-0-0-0-0-0-0-0-0-0-0-0-0-0-0-0-|-0-0-0-0-0-0-0-0-0-0-0-0-0-0-0-0-|
    D---------------------------------|---------------------------------|
    G---------------------------------|---------------------------------|
    D---------------------------------|---------------------------------|…
Наверх