Аккорды «Bigwig»

Bigwig
Bigwig - хардкор панк группа из Нью-Джерси, сформировавшаяся в 1995 г. С момента основания, популярность группы росла неуклонно, как менялся и рос их саунд, от примитивного хардкор панка, до опасного на соляках метализированного панк рока. Они турили и играли вместе с такими известными командами как Pennywise, Less Than Jake, Blink-182, The Ataris, The Vandals, New Found Glory, No Use for a Name, NoFX, The Suicide Machines, Agnostic Front, Parkers Solo Trip, Lagwagon, Reel Big Fish. После выпуска… Читать полностью... Bigwig - хардкор панк группа из Нью-Джерси, сформировавшаяся в 1995 г. С момента основания, популярность группы росла неуклонно, как менялся и рос их саунд, от примитивного хардкор панка, до опасного на соляках метализированного панк рока. Они турили и играли вместе с такими известными командами как Pennywise, Less Than Jake, Blink-182, The Ataris, The Vandals, New Found Glory, No Use for a Name, NoFX, The Suicide Machines, Agnostic Front, Parkers Solo Trip, Lagwagon, Reel Big Fish. После выпуска альбома Invitation To Tragedy в 2001 г., многочисленные изменения в составе заставили группу взять неопределенной длины отпуск. Лишь через 5 лет команда собралась вновь, что бы записать свой последний на данный момент альбом, Reclamation. Оригинальный состав: John Castaldo - басс Josh Farrell - гитара Tom Petta - гитара, вокал Dan Rominski - барабаны; нынешний состав: Tom Petta - вокал, гитара Jeff Powers - гитара, вокал Zach Lorinc - басс Скрыть...
Популярные аккорды Bigwig:
алфавиту | просмотрам | случайно
  • h=hammer on
    ~=vibrato
    ^=string up
    /=slide down
    x=mute
    
    Intro
    e|------10^-10^-10^-10^-10^-10^-10^-10^------------------------------------------|
    B|--------------------------------------7-7777-7777-7-999-1010-101010-1010101010-|
    G|-------------------------------------------------------------------------------|
    D|777-6--------------------------------------------------------------------------|
    A|555-4--------------------------------------------------------------------------|
    E|-------------------------------------------------------------------------------|
    
    Solo
    e|18^-18^-----------------------------------------
    B|--------17-14-15-17-15-14-15-14-12-14-12-10-----
    G|--------------------------------------------11~-
    D|------------------------------------------------
    A|------------------------------------------------
    E|------------------------------------------------
    
    e|------18-15--------181815-181815-181815-181815-18^-15/-|
    B|17h19-------17-17~-------------------------------------|
    G|-------------------------------------------------------|
    D|-------------------------------------------------------|
    A|-------------------------------------------------------|
    E|-------------------------------------------------------|
    
    Verse…
  • Intro : 
    1x 
    e|--------------------------------------------------| 
    B|-3---------10-10-10-8-7-10-10-10-8-7-10-10-10-8-7-| 
    G|-3-(slide)-7--7--7--7-7-7--7--7--7-7-7--7--7--7-7-| 
    D|--------------------------------------------------|…
  • InTRoduCtioN
    G:---------------------------------------------------------------
    D:---------------------------------------------------------------
    A:-------3-----2-------------------------------------------------
    E:--------------------0-------------3----------------------------
    
    ChoRus
    G:---------------------------------------------------------------
    D:---------------------------------------------------------------
    A:---------5>---------3>-----------------play…
  • Intro. 
    |-12-15----15-13-12-10-8-10-12-13-12-10-7-8- 
    |-------15----------------------------------
    |--------------------------------------------
    |--------------------------------------------
    |--------------------------------------------
    |--------------------------------------------…
  • Tuning: Standard
    
    e|---------|---------------------------------------------------------------|
    B|--666-5--|---------------------------------------------------------------|
    G|--555-5--|---------------------------------------------------------------|
    D|---------|--3------------------------------------------3-----------------|
    A|---------|--3----33333333333--------------000000000000-3-----------------|
    E|---------|-1----------------333333333333--------------1-----------------|
    Repeat…
  • |-----------------------------------
    |-5-----6-----8---6-8-6---5-6-------
    |---5-5---5-5---5-------5-----7-7-7-
    |-----------------------------------
    |-----------------------------------
    |-----------------------------------
    
    |---------------------…
  • Intro
    E|------------------------------------------------|
    A|------------------------------------------------|
    D|7-6-7-9-11-7-12-11-14-12-11-7-11-7--------------|
    G|x-x-x-x-x--x-x--x--x--x--x--x-x--x--------------|
    B|5-4-5-7-9--5-10-9--12-10-9--5-9--5--------------|
    E|------------------------------------------------|
    
    
    
    Listen…
  • INTRO: Also play between chorus and verses
    e |-7-----7----------------------------|
    B |---8-----10-7---10-8------8-7-----8-|
    G |-----7--------7------9--------7-9---|
    D |-----------------------10-----------|
    A |------------------------------------|
    E…
  • Intro 			 3x        Then
    e-|---------------------|---------|-------|
    B-|---------------------|---------|-------|
    G-|-12------------------|----6-5--|-5-5---|
    D-|-12----------------5-|--5-6-5--|-5-5---|
    A-|-10----------------5-|--5-4-3--|-3-3---|
    E-|-------------------3-|--3------|-------|…
  • #1
    
    |-------------------------------------------------------------|
    |-------------------------------------------------------------|
    |-----6-6-----5-5---6-6-----8-5-----6-6-----8-5>-5-3-1-0------|
    |-3-3-----6-6-----3-----6-6-----3-3-----6-6--------------3----|
    
    #2
    
    |-------------------------------||-----------|
    |-------------------------------||-----------|
    |-----------6-6-----------------||--1>--0>---|
    |-3-3--6-6-------3-3------------||-----------|
    
    #3
    
    |-------------------------------------------------------------------|
    |-------------------------------------------------------------------|
    |10-10--6-6------5-5-10-10-6-6----8-5-10-10-6-6-----8-5>-5-3-1-0----|
    |------------6-6--------------6-6----------------6-6-------------3--|…
  • intro 1
    G|-4-2-0-------------|
    D|-------4-2-0-------|
    A|-------------4-2-0-|
    E|-------------------|
    
    Riff 1
    G|---------------------------------------------|
    D|-------4-2-0-0-0-0-----------4-2-0-0-0-0-5-4-|  (2x)
    A|-2-2-2-------------2-0-----------------------|
    E|-----------------------3-3-3-----------------|
    
    Riff…
  • Intro 
    
    |-44444444-55555555-44444444-77777777- 
    |-55555555-55555555-55555555-77777777- 
    |------------------------------------- 
    |------------------------------------- 
    |------------------------------------- 
    |-------------------------------------…
Наверх