Аккорды «Calexico»

Calexico
Calexico — современный американский музыкальный коллектив, играющий альтернативное кантри с заметным влиянием мексиканских и латиноамериканских мотивов. Группа была образована в 1996 году вокалистом и гитаристом Джоуи Бёрнсом и барабанщиком Джоном Конвертино в городе Таксон штата Аризона. Текущий состав: Джоуи Бёрнс (Joey Burns) — вокал, гитара Джон Конвертино (John Convertino) — ударные Пол Найхос (Paul Niehaus) — гитара Джейкоб Валенсуэла (Jacob Valenzuela) — клавишные, труба Мартин Венк… Читать полностью... Calexico — современный американский музыкальный коллектив, играющий альтернативное кантри с заметным влиянием мексиканских и латиноамериканских мотивов. Группа была образована в 1996 году вокалистом и гитаристом Джоуи Бёрнсом и барабанщиком Джоном Конвертино в городе Таксон штата Аризона. Текущий состав: Джоуи Бёрнс (Joey Burns) — вокал, гитара Джон Конвертино (John Convertino) — ударные Пол Найхос (Paul Niehaus) — гитара Джейкоб Валенсуэла (Jacob Valenzuela) — клавишные, труба Мартин Венк (Martin Wenk) — аккордеон, гитара, синтезатор, труба Волкер Зандер (Volker Zander) — бас-гитара Индейский рок про "житие мое" Мультистилевая аризонская группа Calexico, в своем творчестве исследующая просторы музыкальной культуры американского юго-запада и отдающая предпочтение то афро-перуанским мотивам, то мелодике вестернов а-ля Эннио Морриконе, то эклектично смешивающая джаз 50-х и кантри, заявила о выпуске в 2006 году нового альбома "Garden Ruin", следующего за "Feast of Wire" образца 2003 года и традиционно записывающегося на лейбле "Quarterstick". Среди основных инструментов, с помощью которых делается музыка Calexico, значатся маримба, виолончель, аккордеон, вибрафон и более традиционные бас, гитара и ударные. Обычной для Calexico стала характеристика "индейский рок с задействованием мексиканских труб-мариачи", но один из лидеров группы Джои Бернс (Joey Burns) обещает, что новая запись станет чем-то особенным, отличным от предыдущих работ, ибо акцент делается скорее не на форме исполнения, - обыгрывании юго-западного декоративного элемента, - а на песнях как таковых. Что характерно: тексты "песен как таковых" отличаются немалой политизированностью - участников группы Calexico не оставляют равнодушными вопросы выборов президента, проблем бытия на границе с Мексикой и прочая. Немудрено, что на альбоме не предполагается инструментальных композиций. Разве выразишь игрой на маримбе недовольство правительством? Тем не менее, калексиканцы помнят и о художественной составляющей своей деятельности: к примеру, в стремлении "отличиться", быть непохожими на коллег и на себя прежних, музыканты дошли до понимания необходимости замены нейлоновых струн на гитарах на более аутентичные стальные. Мелочь, а приятно. Вдобавок к новому альбому и работе над новой записью звезды альтернативного кантри Неко Кейс (Neko Case), у Calexico в запасе еще несколько идей по совместным проектам. К таковым относятся коллаборация с группой Gotan Project и вокалисткой Мариэнн Диссард, участвовавшей в работе над альбомом Calexico "Hot Rail" 2000 года издания. Наиболее же заманчивой для Calexico представляется перспектива сыграть с группой Broken Social Scene. Скрыть...
Популярные аккорды Calexico:
алфавиту | просмотрам | случайно
  • E |----------------------------------------------------------------|
    B |----------------------------------------------------------------|
    G |----------------------------------------------------------------|
    D |---1/7-5-3-3/5-3-1-1-0---1/7-5-7-7/8-7-5-5-7--------------------|
    A…
  • Verse (Cm G# Cm G# / Cm G# Cm G#)
    
    
    Cm                           G#
    Spring is frozen now I'm stuck in low
    Wrapped with wire, tapped to the heart
    Can't find no poison, now I've got no cure
    (the) fangs are stuck inside my…
  • intro x4   am     g    am    am    g    d5    am           am    g     f   am
    e---0-------0----3-----0-----0-----3-----0-----0------------0-----3-----0---0--
    b---0-------1----3-----1-----1-----3-----3-----1------------1-----3-----1---1--
    g---0-------2----0-----2-----2-----0-----2-----2------------2-----0-----2---2--
    d---2-------2----0-----2-----2-----0-----0-----2------------2-----0-----3---2--
    a---2-------0----2-----0-----0-----2-----0-----0------------0-----2-----3---0--
    e---0-------0----3-----0-----0-----3-----0-----0------------0-----3-----0---0--…
  • Guitar 1 (All down strokes)
    ===========================
    
       1  +  2  +  3  +  1  +  2  +  3  +  1  +  2  +  3  +
    e -7--7-----7--7-----7--7-----7--7-----7--7-----7--7------------
    B -7--7----10-10----12-12-----7--7----10-10----12-12------------
    G…
  • Intro riff--
    
    e -0---0---0-----0-----------------1-
    B -1---------3-----3---1-----1-----1- 
    G -2-----------------------2-------2-    F  /  C  /  G  /  Am
    D -2---------------------------3---3-  /
    A -----------------------------------…
Наверх