Аккорды «Candlebox»

Candlebox
Candlebox - американская пост-гранж-группа, в основе творчества которой лежит направление нео-хард-рок. Образована в декабре 1991 в Сиэтле. Состав: Кевин Мартин (Kevin Martin; вокал, гитара), Питер Клетт (Peter Klett; гитара), Барди Мартин (Bardi Martin; бас-гитара), Скотт Меркадо (Scott Mercado; ударные). Основатели CANDLEBOX — Кевин Мартин и Скотт Меркадо. Первоначальное название группы UNCLE DUKE. Позже к ребятам присоединились Клетт и Барди Мартин, и команда получила свое настоящее имя. В… Читать полностью... Candlebox - американская пост-гранж-группа, в основе творчества которой лежит направление нео-хард-рок. Образована в декабре 1991 в Сиэтле. Состав: Кевин Мартин (Kevin Martin; вокал, гитара), Питер Клетт (Peter Klett; гитара), Барди Мартин (Bardi Martin; бас-гитара), Скотт Меркадо (Scott Mercado; ударные). Основатели CANDLEBOX — Кевин Мартин и Скотт Меркадо. Первоначальное название группы UNCLE DUKE. Позже к ребятам присоединились Клетт и Барди Мартин, и команда получила свое настоящее имя. В 1992 группа подписала контракт со звукозаписывающей фирмой Мадонны Maverick и выпустила демо-запись. Первый релиз группы состоялся в 1993, но успех пришел только через год. Две композиции группы — Far Behind и You вошли в американский хит-парад синглов. К 1995 тираж дебютного альбома «Candlebox», куда вошли две эти вещи, превысил в США миллион копий. Песня Far Behind стала главным хитом на многих радиостанциях, вошла в Лучшую 20 США. К середине 1990-х гг. CANDLEBOX заслужили репутацию одного из самых перспективных новых коллективов, исповедующих школу классического тяжелого рока. В 1995 музыканты выпустили второй альбом «Lucy», в котором были использованы классические приемы, присущие британскому хард-року середины 1970-х гг. Но СМИ альбом проигнорировали. В 1997 группу покинул барабанщик Скотт Меркадо, его место занял Дейв Крюзн (Dave Krusen), игравший в культовой группе PEARL JAM. В 1998 появился третий альбом CANDLEBOX «Happy Pills», но и он не имел успеха. В следующем году группу покинули Крюзн и Барди Мартин, которых заменили Шэннон Ларкин (Shannon Larkin; барабанщик UGLY KID JOE) и Роб Редик (Rob Redick). В 2006 году выходит сборник лучших хитов группы В 2008 году после 10-летнего перерыва выходит четвёртый студийный альбом группы "Into The Sun". На песни Stand и Miss You выходят клипы. В 2010 году планировался выпуск нового альбома, но Love Stories & Other Musings вышел только в 2012 году. На данный момент состав группы выглядит следующим образом: Kevin Martin — вокал Peter Klett — гитара Scott Mercado — ударные Adam Kury — бас-гитара Дискография: CANDLEBOX (1993) LUCY (1995) HAPPY PILLS (1998) INTO THE SUN (2008) Love Stories & Other Musings (2012) Скрыть...
Популярные аккорды Candlebox:
алфавиту | просмотрам | случайно
  • Regular tuning (EADGBE)
    
    INTRO
                                                       (REPETE A
                                                        FEW TIMES)
    |-----3-----------------------------------------------------|
    |--------3--------------------------------------------------|
    |-----------0-------0---------------------------------------|
    |--3-----------2----2--22----------0-h-2----2---------------|
    |------------------------------3------------3--3333-2--0----|
    |-----------------------------------------------------------|
    
    
    
    VERSE
    
    |--2--|…
  • Intro/Verse:
    e-3-3-3-3-3p2-2-2-2----------------------
    B-3-3-3-3-3---3-3-3--1-1-1-1-1-1-1-1-1-1-
    G-0-0-0-0-2---2-2-2--0-0-0-0-0-0-0-0-0-0-
    D-0-0-0-0-0---0-0-0--3-3-3-2-2-2-2-2-2-2-
    A-2-2-2-2------------3-3-3-3-3-3-3-3-3-3-
    E-3-3-3-3--------------------------------
    
    
    Pre-Chorus:
    e-----------------
    B-----------------
    G-7-7-7-7-5-7-7-8-
    D-7-7-7-7-5-7-7-8-
    A-5-5-5-5-3-5-5-6-
    E-----------------
    
    
    Chorus:
    e-------------------------------------------
    B-------------------------------------------
    G-9-9-9-9-8-8/6-6-6-6-6/7-7-7-7-2-2-2-2-2-2-
    D-9-9-9-9-8-8/6-6-6-6-6/7-7-7-7-2-2-2-2-2-2-
    A-7-7-7-7-6-6/4-4-4-4-4/5-5-5-5-0-0-0-0-0-0-…
  • Fig. 1
    
    G---------------------------
    D---------------------------
    A---5--5-5-4-5-4------------   Repeat 11x
    E----------------7-7-7-7-7-7
    
    
    Chorus
    
    G------------------------------
    D------------------------------
    A------------------------------…
  • HERE'S THE MAIN RIFF 
    PLAY THIS 4 TIMES
    ( INTRO )
    -------------------------------
    -------------------------------
    ----------------------2--2----
    ----------------------2--2----
    -4--4--4-2--4--4-4-4-0--0----
    -4--4--4-2--4--4-4-4---------
    
    AFTER…
  • Intro/Verse:
    e-2-2-0-0-3-2-2-0---2-2-0-0-3-2--------------------------------------
    B-3-3-3-3-3-3-3-3---3-3-3-3-3-3----------------------------------0-2-
    G-2-2-2-2-2-2-2-2---2-2-2-2-2-2-----0-----0-------0-----0------2---2-
    D-0-0-0-0-0-0-0-0---0-0-0-0-0-0-0h2-----2---2---2---2-------2------2-
    A-----------------3-------------------3-------3-------3---0--------0-
    E--------------------------------------------------------------------
    Pre-Chorus:…
  • tune down 1/2 step
    
    
    Intro: (4) means heavy mute (listen to the cd)
    e|--------------------------------------------------|
    B|--------------------------------------------------|
    G|-------(6)---------(6)---------(4)---------(4)----|
    D|----(4)---(4)---(4)---(4)---(3)---(3)---(3)---(3)-|
    A|-(5)---------(5)---------(4)---------(4)----------|
    E|--------------------------------------------------|
    
    e|--------------------------------------------|
    B|--------------------------------------------|
    G|-------(6)---------(6)-------------0--------|
    D|----(4)---(4)---(4)---(4)--------2---2---2--|
    A|-(5)---------(5)-------------2---------2----|
    E|---------------------------0----------------|
    
    
    e|---------------------------------------------|->
    B|---------------------------------------------|->
    G|---5--5--5-5-5-5/9---9---9--9-/10--10-10--9--|->
    D|---6--6--6-6-6-6/10--10--10-10/11--11-11--10-|->
    A|---6--6--6-6-6-6/10--10--10-10/11--11-11--10-|->
    E|--4--4--4-4-4-4/8---8---8--8-/9---9--9---8--|->
    
    
    e|------------------------------------------------|->
    B|------------------------------------------------|->
    G|-5--5--5-5-5-5/9---9---9--9-7--7-7-79---9--9--|->
    D|-6--6--6-6-6-6/10--10--10-108--8-8-810--10-10-|->
    A|-6--6--6-6-6-6/10--10--10-108--8-8-810--10-10-|->
    E|-4--4--4-4-4-4/8---8---8--8-6--6-6-68---8--8--|->
    
    e|------------------------------------|
    B|------------------------------------|
    G|-5--5--5-5-5-5/9---9----9--10-9--9--|
    D|-6--6--6-6-6-6/10--10---10-11-10-10-|
    A|-6--6--6-6-6-6/10--10---10-11-10-10-|
    E|-4--4--4-4-4-4/8---8----8--9--8--8--|
    Then…
  • ------------------------------------------------------
    -17------16------------16------17-----16-----------16-
    ----14-----14--------14---14------14----14-------14---
    -------------14----14----------------------14---14----
    -------14-------14------------14-----14------14-------
    ------------------------------------------------------
    
    --------------------
    ------17----16------
    -14-----14----14----
    -----------------14-
    ---14-----14--------
    --------------------…
  • (INTRO)
    
                                                                          AH   NO
      NO   NO_____
    --5---5---5--5--5-------7---7---7------7---7---
    --6---6---6--6--6-------8---8---8------8---8---
    --5---5---5-----5-------7---7---7------7---7---
    --0---0---0-------…
  • Intro: 
    
    e---------------------0---------------
    B-------------------3---3-------------
    G-------0---------0-------------------
    D---4-----4-----4---------------------
    A-----5-----5-------------------------
    D-0-----------5-----------------------
    
    Verse:
    
    e-------0------------0----------------
    B-----3---3--------3---3--------------
    G---0------------0-----------0--------
    D-4------------4-----------0---0------
    A--------------------------------5----
    D------------------------5------------
    
    e---------------------------------0---
    B-------------------------------3---3-
    G-----0-----0---------0-------0-------
    D---------2---2---4-----4---4---------
    A---8---3-------5---5-----5-----------
    D-8-----------------------------------
    
    Chorus:…
  • Intro: 
    
    e-------------------------------------------------
    B-------------------------------------------------
    G-------------------------------------------------
    D-------------------------------------------------
    A-4/6-6-6-6-6-4/7-7-7-7-7-4/6-6-6-6-6-4/7-7-7-7-7-
    D-4/6-6-6-6-6-4/7-7-7-7-7-4/6-6-6-6-6-4/7-7-7-7-7-
    
    e---------------------------------------------------
    B---------------------------------------------------
    G---------------------------------------------------
    D---------------------------------------------------
    A-4/6-6-6-6-6-4/7-7-7-7-7-4/6-6-6-6-6-4/7-x-x-x-x-x-
    D-4/6-6-6-6-6-4/7-7-7-7-7-4/6-6-6-6-6-4/7-x-x-x-x-x-
    
    
    e--------------------
    B-3--5--3--5--7--9---
    G-5b-7b-5b-7b-9b-11b-
    D--------------------
    A--------------------
    D--------------------
    
    Verse:
    
    e-------------------------------------
    B-------------------------------------
    G-------------------------------------
    D-4/6-6-x-4/6-6-x-4/6-6-x-4/7-7-7-7-7-
    A-4/6-6-x-4/6-6-x-4/6-6-x-4/7-7-7-7-7-
    D-------------------------------------
    
    Chorus:
    
    e-------------------------------------
    B-------------------------------------
    G-4-------------2---------------------
    D-4-----------2---2---2-2-4-4-5-5-7-7-
    A-2-2-0-2h4-0-------0-2-2-4-4-5-5-7-7-
    D---------------------2-2-4-4-5-5-7-7-…
  • Intro:                                                                     
    E-|---------------------------------|-----------------------------------------|
    B-|---------------------------------|-----------------------------------------|
    G-|---------------------------------|-----------------------------------------|
    D-|-10-12-12-10-12------------------|-10-12-12-10-12--------------------------|
    A-|-10-12-12-10-12------------------|-10-12-12-10-12--------------------------|
    E-|-10-12-12-10-12------------------|-10-12-12-10-12--------------------------|…
  • Intro
    
    G-------I-------I
    D-------I-------I
    A---5---I---3---I  Repeat 3x
    E-------I-------I
    
    Fig 1
    
    G-----------------I---------------I-----------------I----------------I
    D-----------------I---------------I-----------------I----2-3-2-------I
    A--5-0-5-0--3-----I--5-0-5-0--3---I--5-0-5-0--3-----I--5-------5-3---I
    E---------3---3---I---------3-----I---------3---3---I----------------I
    In…
  • Intro: 
    
    e---------0---------------0---------------0---------
    B-----------0---------------0---------------0-------
    G-------------2---------------2---------------6-4-2-
    D-----3---------3-----3---------3-----7---------5-3-
    A---3---3-----------3---3-----------7---7-------5-3-
    E-1---------------1---------------5-------------3-1-
    
    
    
    e---0---------------0---------0-----
    B-----0---------------0---0---------
    G-------2---------------6-------4-2-
    D---------3-----7-----------7---5-3-
    A-------------7---7-------------5-3-
    E-1---------5-------------------3-1-
    
    
    
    Verse:
    e---------------0-----0-----------------0-----------
    B-----------------0-----0-----------------0---0---0-
    G-2---2-----6-------6-----6-2---2---6-------6---6---
    D-3---3-------7-------------3---3---7---------------
    A-3---3---7-----------------3---3---7-7-------------
    E-1---1---------------------1---1---5---------------
    
    
    
    e--0---------0--------------0-----------0-----------
    B----0---------0--------------0---0---0---0---------
    G--------2--2----2-------6------6---6-------6-----2-
    D-7----5-3--3------3-------7------------------7-7-3-
    A------5-3--3----------7------------------------7-3-
    E------3-1--1--------5--------------------------5-1-
    
    
    
    e---0---------------0-------0-------0-------
    B-----0---------------0-------0-------0-----
    G-------2---------------6-------6-------6---
    D---------3-----7---------7-------7-------7-
    A-------------7---7-------------------------
    E-1---------5-------------------------------
    
    
    Chorus1:…
  • Intro/Verse: 
    
    e-----------------
    B-------------0---
    G-----5---------5-
    D---0---0---0-----
    A-5-------5-------
    E-----------------
    
    e-------
    B-------
    G-----2-
    D---4---
    A-2-----
    E-------
    
    e-------------------
    B-------------2-----
    G-----2---------2---
    D---4-------4-----4-
    A-2-------2---------
    E-------------------
    
    2nd…
  • Intro: 
    
    e----------------------------------------------
    B----------------------------------------------
    G-9-7-----7-------7-------7-----7-9-9b-9b-9br7-
    D-9-7-5/9---9-5/9---9-5/9---9-9----------------
    A-7-5------------------------------------------
    E----------------------------------------------
    
    e-------------
    B-------------
    G---7-7h9-9-7-
    D-9-----------…
  • intro:
    e|---0-----0---0x---0-----0---0x--|
    B|-----0-----0-0x-----0-----0-0x--|
    G|-------3~----3x-------3~----3x--|
    D|-4--------------4---------------|
    A|-4--------------4---------------|
    E|-2--------------2---------------|…
Наверх