Аккорды «Cannibal Corpse»

Cannibal Corpse
Группа Cannibal Corpse была создана в начале 1988 года в городе Баффало, штат Нью-Йорк, путем объединения музыкантов двух распавшихся команд: Tirant Sin и Beyond Death. Уже своим скандальным дебютом «Eaten back to life» музыканты заявили себя пионерами на абсолютно новых, неизведанных границах экстремальной музыки. Любопытные металхэды, рассерженные родители и общественные деятели вылупили глаза, услышав записанную продюсером Скоттом Бернсом пластинку в ставшей вскоре знаменитой студии Morrisound,… Читать полностью... Группа Cannibal Corpse была создана в начале 1988 года в городе Баффало, штат Нью-Йорк, путем объединения музыкантов двух распавшихся команд: Tirant Sin и Beyond Death. Уже своим скандальным дебютом «Eaten back to life» музыканты заявили себя пионерами на абсолютно новых, неизведанных границах экстремальной музыки. Любопытные металхэды, рассерженные родители и общественные деятели вылупили глаза, услышав записанную продюсером Скоттом Бернсом пластинку в ставшей вскоре знаменитой студии Morrisound, материал нарушал все существующие нормы и превосходил по части агрессии и экстремальности любой существующий на тот момент релиз в металлической музыке. Следующие диски стали логическим продолжением первого, ребята прибавили в технике, мощи и агрессии. Тексты вокалиста коллектива Криса Барнса становились всё более изуверскими и жуткими, уже одни названия типа «Hammer smashed face,» «Meat hook sodomy» или «Addicted to vaginal skin» говорили за себя. В то же время художник Винсент Лок оттачивал свое мастерство по изготовлению обложек, по сравнению с которыми большинство фильмов ужасов были детскими шуточками. Как итог, альбомы «Butchered at birth» и «Tomb of the mutilated» многократно не допускались в продажу, запреты были в Австралии, Корее, Новой Зеландии, Германии… С 1991 года группа активно гастролировала, заезжая в самые разные уголки планеты, так, в 1993 году коллектив отметился и концертом в России, на котором было записано видео. CANNIBAL CORPSE не относятся к командам, где частая смена состава музыкантов - норма. Басист Алекс Вебстер и ударник Пол Мазуркевич никогда не покидали группу, ещё один участник, гитарист Джек Оуэн, также стоявший у истоков группы, покинул коллектив в 2004 году, заменой ему стал Роб Баррет, который уже играл в группе с 93 по 96 год и был сменен в 97-м году Пэтом О’Брайном, который и по сей день в группе. Единственная смена вокалиста произошла в 1994 году после записи альбома «The Bleeding». Обладатель утробного гроулинга, автор почти всех текстов с первых четырех альбомов Крис Барнс переключился на свой проект SIX FEET UNDER, и группа встала перед проблемой поиска нового фронтмэна, так и появился в рядах Каннибалов верзила Джордж Фишер, без которого совершенно невозможно представить себе группу сегодня. Подача вокала Фишером отличалась от того что делал Барнс, ряд поклонников коллектива были разочарованы, но они явно не были в большинстве, за лирику теперь взялся Вебстер, если раньше он был основным автором музыки, теперь он стал и главным «поэтом» в коллективе, правда Мазуркевич ему в этом активно помогает. В 1996 году выходит «Vile», в 1998-1999 гг. ещё два альбома – «Gallery of suicide» и «Bloodthirst». Все обложки группы по-прежнему оформлял Винсент Локк, чья извращенная фантазия усугублялась с каждым годом. В 2000 году появляется первый и на сегодняшний день единственный официальный концертный релиз уже всемирно известных к тому времени флоридцев. «Live cannibalism», скомпилированный из двух концертных выступлений 15-16 февраля 2000 года, получил высочайшие оценки критиков и был многими признан лучшей концертной записью среди всех коллективов, исполняющих brutal death metal. В 2002 году появляется 8-ой студийный альбом «Gore obsessed», а годом позже статистика продаж упрямо возвестила, что число проданных копий достигло и перевалило за 1 миллион, платиновый диск для группы подобной специфики – огромная редкость. Тогда же был издан бокс из нескольких дисков, содержащих донельзя раритетные материалы, сет стал настоящим подарком для фэнов группы. В рамках тура, в поддержку следующего студийника «The wretched spawn» группа вновь посетила Россию. Выступления в Питере и Москве прошли с аншлагом. С тех пор прошло без малого три года, десятый полноформатник «Kill» удивил своей обложкой, на ней не было страшных сюжетов, но вышедший материал все поставил на свои места, это все тот же наибыстрейший, яростный и бескомпромиссный death metal с жутчайшими текстами. В начале 2009 года металлеры из Тампы выпустили очередной альбом, получивший название Evisceration Plague - еще одно подтверждение тому, что флоридцы на death metal сцене - это всерьез и надолго. Студийные полноформатные альбомы: 1990 - Eaten Back To Life 1991 - Butchered at Birth 1992 - Tomb of the Mutilated 1994 - The Bleeding 1996 - Vile 1998 - Gallery of Suicide 1999 - Bloodthirst 2002 - Gore Obsessed 2004 - The Wretched Spawn 2006 - Kill 2009 - Evisceration Plague 2012 - Torture Другие релизы: 1989 - Cannibal Corpse (демо-запись) 1993 - Hammer Smashed Face (мини-альбом) 1995 - Created to Kill (демо-запись) 1996 - Devoured By Vermin (сингл) 1997 - Deadly Tracks (сборник лучших песен) 1997 - Monolith of Death (концертник) 2000 - Sacrifice / Confessions (сингл) 2000 - Live Cannibalism (концертник) 2003 - Worm Infested (мини-альбом) 2003 - 15-Year Killing Spree (сборник + DVD) 2006 - Kill: 3 Song Sampler (мини-альбом) 2008 - Centuries Of Torment: The First 20 Years (DVD) Скрыть...
Популярные аккорды Cannibal Corpse:
алфавиту | просмотрам | случайно
  • Riff 1          Riff 2     Bass Solo        Riff 3
    G-----------G   G------G   G------------G   G------------G
    D-----------D   D------D   D--4---------D   D--4---------D
    A-----------A   A------A   A-2-2-3------A   A-2-2-3------A
    E-0-0-0--6-E…
  • TUNING: Eb, Bb, Gb, Db, Ab, Eb(in other words, every string down 1/2 step)
    
      Fill A ----|   Riff A
    |-------------|--------------------------------------------------|
    |-------------|--------------------------------------------------|
    |-------------|*-------------------------------------------------|…
  • Riff 1                                                           
    |----------------------------------------|
    |----------------------------------------|
    |---0-2(tr3)---0-2(tr3)---0-2(tr3)-------|
    |----------------------------------------|
    |-5----------5----------5----------5-4-3-|
    |-3----------3----------3----------3-2-1-|…
  • Main Riff
    e|------------------------|------------------------|-----------------------------
    B|------------------------|------------------------|-----------------------------
    G|------------------------|------------------------|---------------------3-------
    D|------------4444-----3--|------------7777-----4--|------------3333-----1-------
    A|-------3333------443-3--|-------7777------887-2--|-------2222------332-1-------
    E|--2222---------------1--|--6666---------------2--|--1111-----------------------
    
    e|---------------------------------------------------------------
    B|---------------------------------------------------------------
    G|---------------------------------------------------------------
    D|------------4444-----5-----------------------------------------
    A|-------3333------443-3-----------------------------------------
    E|--2222---------------3-----------------------------------------
    
    Riff…
  • Tune strings down to C#, G#, C#, F#, and PLAY WITH A PICK even though
    Cannibal Corpse's bassist doesn't (no kidding!).
    
    Riff A: (4 times)
    G#----------------------
    C#--7---5-4----8---6-5--
    
    Riff B: (once)
    G#--------------------------------------------------------
    C#--4------4------4------4--4--4--4--4444-3333-2222-1111--
    
    Riff…
  • Riff 1 x8
    e|---------------------------------------|
    B|---------------------------------------|
    G|---------------------------------------|
    D|---------------------------------------|
    A|-----------2-2-2-2-------4----2-2-2-2--|
    E|--5-6-5-3--0-0-0-0---5-6---6--0-0-0-0--|…
  • Fig. 1
    |--------------------------|--------------------------
    |--------------------------|--------------------------
    |--------------------------|--------------------------
    |--------------------------|--------------------------
    |--2-2-2-6-----4-----3-----|--2-2-2-6-----4-----3-----
    |--0-0-0-6-------6-5---5-4-|--0-0-0---8-7---6-5---5-4-
    
    
    Fig.…
  • Riff A
    Ab|----------------|----------------|
    Eb|5-0-4-0-3-0-2-0-|4-0-3-0-2-0-1-0-|
    P.M. . . . . . . .  . . . . . . . .
    
    Play Riff A 8x
    
    Riff B  (slower, tempo: 200 bpm)
       /=3= /=3= /=3= /=3=  /=3= /=3= /=3= /=3=
    Db|------------------------|------------------------|--
    Ab|7-7-7-7-7-7-7-7-7-7-7-7-|8-8-8-8-8-8-8-8-8-8-8-8-|--
    Eb|5-5-5-5-5-5-5-5-5-5-5-5-|6-6-6-6-6-6-6-6-6-6-6-6-|--…
  • There are 2 versions of the song.  Here is the old.
    
    e|----------------------------------------|
    B|----------------------------------------|
    G|------3--5------3--5-6-5------3--5--3---|
    D|---5--3--5---5--3--5-6-5---5--3--5--3--5|
    A|---5---------5-------------5-----------5|
    E|----------------------------------------|
    
    Now…
  • Riff 1 4x
    |-------------| Riff 1 |-------------------|
    |-------------| 5 more |-------------------|
    |-------------| times  |-------------------| Riff 1 4x
    |-3---6---3--|        |-3-2---------------|
    |-1-5-4-5515-|…
  • Adversaries will cower 
    In the wake of his appearance 
    Clad with remains of their friends 
    
    Bludgeoning them with power 
    As they strain to make a defense 
    The bringer of death descends 
    
    Skull fragment armor 
    It"s…
  • RIFF 1
    --------------------------------------------------------------
    --------------------------------------------------------------
    --------------------------------------------------------------
    ---7......6.......6......-------------------------------------
    --------------8..........8.......7......8.......7......-------
    --------------------------------------------------------------
    
    
    RIFF…
  • Tuning in B
    
    riff 1                             x4
    |----------------|----------------|
    |----------------|----------------|
    |----------------|----------------| GTRI+GTRII
    |----4p3---------|----5h6---------|
    |3h4-------------|5h6-------------|
    |--------00000000|--------44444444|…
  • Riff 1 x6
    e|-------------------|-------------------|-------------------|------------------|
    B|-------------------|-------------------|-------------------|------------------|
    G|-------------------|-------------------|-------------------|------------------|
    D|-------------------|-------------------|-------------------|------2-3----2-3--|
    A|--2h3--------------|--2h3--------------|--2h3--------------|------0h1----0h1--|
    E|------1h2-2h3-3h4--|------1h2-2h3-3h4--|------1h2-2h3-3h4--|--000-----00------|
    
    Riff…
  • Tuning (Low - High): Eb Ab Db Gb
    
    A                      Play 3 Times
    |---------------------------------|
    |---------------------------------|
    |-2-------2-------2-------8------|
    |-0-------0-------0-------6------|
      pm......................
    
    
    B
    |------------------------------------|
    |-------------------5--5--5--5--4----|
    |------------------------------------|
    |-0--0--1--1--2--2-------------------|…
  • Tuning: Eb, Bb, Gb, Db, Ab, Eb(in otherwords, everystring down half a step)
    
    Riff A
    |------------------------------------------------------------------|
    |------------------------------------------------------------------|
    |------------------------------------------------------------------|…
  • Riff 1   (Intro)              1,3___________________________________ 
    |--------------------------------------------------------------------|
    |--------------------------------------------------------------------|
    |--------------------------------------------------------------------|…
  • Fig. 1 x2
    e|---------------------------------------|-----------------------------|
    B|---------------------------------------|-----------------------------|
    G|---------------------------------------|-----------------------------|
    D|---------------------------------------|-----------------------------|
    A|--3---------5-----8/9---7/8-----3------|--5-----8/9---7/8-----3------|
    E|--1-0-00-00-3-000-6/7-0-5/6-000-1-000--|--3-000-6/7-0-5/6-000-1-000--|
    
    e|-----------------------------------------|
    B|-----------------------------------------|
    G|-----------------------------------------|
    D|-----------------------------------------|
    A|--5-----8/9---7/8-----5-----5-----5------|
    E|--3-000-6/7-0-5/6-000-3-000-3-000-3-000--|
    
    Riff…
  • Tune down Bb (7 string but transcribed for 6 strings tuned that low)
    
    intro (riff 1)
    |------------------------------------|
    |------------------------------------|
    |------------------------------------|
    |------------------------------------|
    |------3-2-0------3-2-0--------------|
    |--(4)--------(4)--------------------|…
  • |-----------------------------|
    |-----------------------------|
    |-----------------------------| GTR I and GTR II
    |-----------------------------|
    |-553-2-5---222---222---222---|
    |-331-0-3---000---000---000---|
    
    Play The Following…
  • ________________________
    Riff 1   (Intro)                               |1,3
    |---------------------------------------------------------------------| 
    |---------------------------------------------------------------------|
    |------------12^0------------------------------12-12-12-13-13-13-14-14|…
  • Intro         Intro A
    |-----------| |----------|
    |-----------| |----------|
    |-----------| |-----3----|
    |-2---1-----| |-2---1----|
    |---3---2---| |---3---2--|
    |---------3-| |---------3|
    
    Riff 1
    |-----------------|---------------------|
    |-----------------|---------------------|
    |-----------------|---------------------|
    |-----------------|---------------------|
    |-----------------|---------------------|
    |-000-000-000-000-|-0306-0205-0203-0102-|
    
    Riff…
  • Tune down 1/2 step
    
    intro (riff 1)
    |------------------------------------|
    |------------------------------------|
    |------------------------------------|
    |------------------2---------2-------|
    |--5---6--3----5--2-----5--2-------|
    |--3---4--1----3---0-0-3---0-0---|
    
    
    riff…
  • Intro
    e|---------------------------------------------------------------
    B|---------------------------------------------------------------
    G|-----------------------6v--------------------------------------
    D|--5------------------------------------------------------------
    A|--5-----4-----3------------------------------------------------
    E|--3-3-3-2-2-2-1-1-1--------------------------------------------
    
    Verse
    e|--------------------------------------|---------------------------|---------------------------
    B|--------------------------------------|---------------------------|---------------------------
    G|--------------------------------------|---------------------------|---------------------------
    D|--6----------------6------------------|---------------------------|---------------------------
    A|--4--------2-------4--------2---------|--6-----6-----------3------|--6------------------------
    E|----000000-0-00000---000000-0-000000--|----000---000-5-000---000--|----000-6333-5222-4111-----
    
    Post…
  • Riff 1 x1
    e|------------------------------------|
    B|------------------------------------|
    G|------------------------------------|
    D|------------------------------------|
    A|--------2---------1--------2---1----|
    E|--03020---1-03020---2-03020--1---2--|
    
    Riff…
  • Fig. 1
    |---------------------------
    |---------------------------
    |---------------------------
    |---------------------------
    |--------2-1-0-4-3-0-3-2-0--
    |--2-1-0--------------------
    
    
    Fig. 2
    |-------------------|------------------|------------------|
    |-------------------|------------------|------------------|
    |-------------------|------------------|------------------|
    |-------------------|------------------|------------------|
    |----------21004300-|-1111111132002100-|---------32002100-|
    |--22222222---------|------------------|-11111111---------|
    
    Fig.…
  • Tune down 1/2 step
    
      Riff 1                        Riff 1a
     |----------------------|     |----------------------|           
     |----------------------|     |----------------------|
     |----------------------|     |----------------------|…
  • Fig. 1
    |--------------------------|--------------------------
    |--------------------------|--------------------------
    |--------------------------|--------------------------
    |--------------------------|--------------------------
    |--2-2-2-6-----4-----3-----|--2-2-2-6-----4-----3-----
    |--0-0-0-6-------6-5---5-4-|--0-0-0---8-7---6-5---5-4-
    
    
    Fig.…
  • Main riff (extremely fast)
    e|---------------------------------------------------------------
    B|---------------------------------------------------------------
    G|---------------------------------------------------------------
    D|----------------3-4--------------------------------------------
    A|----------------1-2--------------------------------------------
    E|--0102010201020--0---------------------------------------------
    
    (play…
  • Riff 1 x16
    e|---------------------------|
    B|---------------------------|
    G|---------------------------|
    D|------------------1114321--|
    A|--333333444666-000---------|
    E|---------------------------|
    
    Riff 2 x3 (My ropes and…
  • Riff 1 x12  
    e|---------------|
    B|---------------|
    G|---------------|
    D|---------------|
    A|--1---0--------|
    E|----3---2-1----|
        . . . . .       
    
    Fill 1 x1
    e|-------------------|
    B|-------------------|
    G|-------------------|
    D|-------------------|
    A|--1-0-----1-0------|
    E|------2-1-----2-1--|
    
    Riff…
  • ------------------------------------------------------------
    ------------------------------------------------------------
    ------------------------------------------------------------
    -----------------------------333333-------------------------
    -------------3333-------------------2*-000-2*-000-2*--------
    -111111444444----444400001111----------000----000-----------…
  • This song is written for a 7 string guitar
    
    Tunning: Bb Eb Ab Db Gb Bb Eb
    Fig. 1
    |------------------------------------------------
    |------------------------------------------------
    |------------------------------------------------
    |------------------------------------------------
    |--------------552-663-------------552-663-885---
    |------------------------------------------------
    |--330-330-330---------330-330-330---------------
    
    |------------------------------------------------
    |------------------------------------------------
    |------------------------------------------------
    |------------------------------------------------
    |--------------552-663-------------663-885-996---
    |------------------------------------------------
    |--330-330-330---------330-330-330---------------
    
    
    Fig.…
  • Riff 1 (2 times)                          
    E -----------------------------------------------------
    B -----------------------------------------------------
    G -----------------------------------------------------
    D -----------------------------------------------------
    A…
  • ------------------------------------------------------------------------------
    ------------------------------------------------------------------------------
    ------------------------------------------------------------------------------
    ------------------------------------------------------------------------------
    -0-2-2-0-0-2-2-3--------------------------------------------------------------
    -0-2-2-0-0-0-0-3--------------------------------------------------------------…
  • Fig. 1 x6
    e|-------------------|
    B|-------------------|
    G|-------------------|
    D|--2h3p2------------|
    A|--------2h3p2-4-5--|
    E|--------------2-3--|
    
    Fig. 2 x8 (Walking down the street, the smell of death in the air...)
    e|------------------------|
    B|------------------------|
    G|------------------------|
    D|------------------------|
    A|-------------------4-5--|
    E|--0-1-2-0-1-2-7-0-2-3--|
    
    Riff…
  • Tuning: Eb (one half step down)
    
    Riff 1 x5
    e|----------------------|-----------------------|
    B|----------------------|-----------------------|
    G|----------------------|-----------------------|
    D|----------------------|-----------------------|
    A|----------------------|--------------5p4------|
    E|-0000-0000-0123-0123--|--0000-0000-6-----6p3--|
    
    Riff…
  • Fig. 1 x4
    e|-----|-------------------|
    B|-----|-------------------|
    G|-----|-------------------|
    D|--2--|--5-4---4-3---3-2--|
    A|--2--|-------------------|
    E|--0--|------0-----0------|
                  .     .
    
    Fig. 1B x4
    e|-----|----------------------------|
    B|-----|----------------------------|
    G|-----|----------------------------|
    D|--2--|-----------5-4---4-3---3-2--|
    A|--2--|----------------------------|
    E|--0--|--0-0-0-0------0-----0------|…
  • Tuning (Low - High): Bb Eb Db Ab
    
    Note: Riffs A1-A4 and G are suspect. If anyone has a better idea, then mail me!
    
    Intro	                                       Guitar 1
    |------------|------------|------------|------------|
    |-8-7--4444--|-8-7--4444--|-8-7--4444--|-8-7--4444--|
    |-6-5--------|-6-5--------|-6-5--------|-6-5--------|
    |------------|------------|------------|------------|
    |…
  • Riff 1A
    e|---------------------------------------------------------------
    B|---------------------------------------------------------------
    G|---------------------------------------------------------------
    D|----------------------3----------------------------------------
    A|----------------------1----------------------------------------
    E|--0-2-1-0-3-2-0-2-1-0---2-0------------------------------------…
  • RIFF 1
    
    -----------------------------------------------------------]
    -----------------------------------------------------------]
    -----------------------------------------------------------]
    --------6------6------------6------6-------8/10--10-10-8-8-]
    --------6------6------------6------6-------6/-8---8--8-6-6-]
    -000000-4-0000-4-0000000000-4-0000-4-00000-----------------]
    [pm*…
  • Riff 1
    A-4--3--2------------------------
    E-2--1--0--0--3--2--5--3--6--2--5
               .  .  .  .  .  .  .  .
    
    Riff 2
    
    
    
    Riff 3
    A--------------------------2-2-2-2-2-2-2-2
    E--0--3--2--5--3--6--2--5--0-0-0-0-0-0-0-0
       .  .…
  • Fig. 1
    1 & 3
    |-------------------------------------|
    |-------------------------------------|
    |-------------------------------------|
    |-------------------------------------|
    |--4-3---3-4-3------------------------|
    |--2-1-0-1-2-1-00000000333344441111---|
    
    2,…
  • Fig. 1
    e|---------------------------------------------------------------
    B|---------------------------------------------------------------
    G|---------------------------------------------------------------
    D|-----------3---------------------------------------------------
    A|--3--6--5--1---------------------------------------------------
    E|--1--4--3------------------------------------------------------
    
    Fig.…
  • Intro
    |--------------------------------|
    |--------------------------------|
    |--------------------------------|
    |--------------------------------|
    |-111-------------111------------|
    |-----333-444-111-----333-111-000|
    
    |-------------------------------|
    |-------------------------------|
    |-------------------------------|
    |-------------------------------|
    |-111-------------111-----------|
    |-----333-444-111-----333-111-0-|
    
    Riff1
    A-Bb-G-A-A-Bb-A-G-F#
    
    -This…
  • Fig. 1
    |----------------------------------------------------
    |----------------------------------------------------
    |----------------------------------------------------
    |----------------------------------------------------
    |--7-----------------------7-------------------------
    |--0-----------------------0-------------------------
    
    
    Fig.…
Наверх