Аккорды «Capdown»

Capdown
Capdown - группа из города Милтон-Кинс, Великобритания. Песни группы содержат политическую тематику. В стиле перемешиваются ска, панк, хардкор, даб и регги. Популярность Capdown зароботали благодаря независимым (инди) релизам и многочисленим турам. Дебютный альбом Civil Disobedients был выпущен на независимом Лондонском панк лейбле Household Name Records в 2000 году, в котором Capdown отыграли около 250 концертов. В 2001 Capdown выступали со многими Американскими группами, в том числе с Less Than… Читать полностью... Capdown - группа из города Милтон-Кинс, Великобритания. Песни группы содержат политическую тематику. В стиле перемешиваются ска, панк, хардкор, даб и регги. Популярность Capdown зароботали благодаря независимым (инди) релизам и многочисленим турам. Дебютный альбом Civil Disobedients был выпущен на независимом Лондонском панк лейбле Household Name Records в 2000 году, в котором Capdown отыграли около 250 концертов. В 2001 Capdown выступали со многими Американскими группами, в том числе с Less Than Jake и выступали на Deconstruction festival с Pennywise и Lagwagon. В сентябре 2001 Capdown выпустили второй альбом Pound for the Sound, получив хорошие отзывы от журнала Kerrang. Этот год дополнялся турами с Bad Religion и Hundred Reasons. В 2003 группа подписывает контракт с Fierce Panda Records и выпускает два EP: Act Your Rage и New Revolutionaries. Конечный состав группы: Jake (вокал и саксофон) Boob (бас гитара) Keith (вокал b гитара) Tim (барабаны) и дополнением стал Andrew «Eddie» Hunt (клавишные/семплы). 5 февраля 2007 года группа выпускает новый альбом Wind Up Toys на Fierce Panda Records. Последний концерт Capdown отыграли 7 июня в клубе Pitz, в родном городе. Согласно офф. сайту, группа больше не будет выступать как Capdown. Во время свое последнего тура они скзали что Capdown никогда больше не будет играть, объясняя это неувереностью в их будущем. После распада группы Boob и Tim обьявили о работе над новой группой, The Maccalites, совместно с Simon Wells из Snuff/Southport. Участники: Jake Sims-Fielding Robin «Boob» Goold Keith Minter Tim MacDonald Скрыть...
Популярные аккорды Capdown:
алфавиту | просмотрам | случайно
  • Riff 1
    e---------------------|----------------------
    b---------------------|----------------------
    g---------------------|----------------------
    d-3-3---3-5-6-5-3-----|-3-3---3-5-6-5-3-2----
    a-----------------3---|----------------------
    e---------------------|----------------------
    
    Riff…
  • Riff one 
    
    G--------|---------------------
    D--------|----6----------------
    A--------|4-6-----4-6-4--------
    E--2-3-4-|------6-------6-4----
    
    riff two
                           first three times        fourth    
    G--------------------|-----------------------|----------
    D--------------------|-----------------------|----------
    A--4-4-4-2-5-5-5-5-5-|-----------------------|----------
    E--------------------|7-7-7-7-6-5-4-4-4-4----|-77-77-77-
    
    riff…
  • TUNING: Standard (E A D G B e)
    
    INTRO
    e|---------------------------------------------------------|
    b|---------------------------------------------------------|
    G|---------------------------------------------------------|
    D|----------------------7-7--7-6-6--6-6-6--6-6-6--6-6-6--6-|
    A|-8-8--8-8-8--8-8-8--8-5-5--5-4-4--4-4-4--4-4-4--4-4-4--4-|
    E|-6-6--6-6-6--6-6-6--6------------------------------------|
    pm…
  • Intro
    
    E-------------------------------------------------------------------
    B-------------------------------------------------------------------
    G-------------------------------------------------------------------
    D-------8-----------------------------------------------------------
    A-------8----------------------------------------4---4--------------
    E-------6--------------------------------------6---6----------------…
  • Riff 1:
    
    G-------------------|
    D-------------------|
    A-------------------|
    E--6--7--2--/7--9-4-|
    x 5
    
    Riff 1 end:
    
    G-----------------------|
    D-----------------------|
    A-----------------------|
    E--6--7--2--7-6-4-6-4-3-|
    
    G------------------|
    D------------------|
    A-----------2-4----|
    E--2--1--2------3--|
    x…
Наверх