Аккорды «Caramelos De Cianuro»

Caramelos De Cianuro
Caramelos De Cianuro - латинская рок-группа из Венесуэлы. Группа была образована в 1991 г. и записала свои первые 2 песни - "Nadando a Traves De la Galaxia" и "Tu Mama Te Va a Pegar" в 1992 г. Музыка группы представляет собой смесь латинского ска и поп-рока. Текущий состав: - Asier Cazalis - вокал - Miguel Gonzáles "El Enano" - гитара - Pavel Tello - бас - Alfonso Tosta - барабаны Caramelos De Cianuro - латинская рок-группа из Венесуэлы. Группа была образована в 1991 г. и записала свои первые 2 песни - "Nadando a Traves De la Galaxia" и "Tu Mama Te Va a Pegar" в 1992 г. Музыка группы представляет собой смесь латинского ска и поп-рока. Текущий состав: - Asier Cazalis - вокал - Miguel Gonzáles "El Enano" - гитара - Pavel Tello - бас - Alfonso Tosta - барабаны Скрыть...
Популярные аккорды Caramelos De Cianuro:
алфавиту | просмотрам | случайно
  • Intro(just bass at first)
    
    E------------------------------
    B------------------------------
    G------------------------------
    D------------------------------
    A------------------------------
    E-3-3-6-6-3-3-6-6-3-3-3-3-3----
    
    E------------------------------
    B------------------------------
    G------------------------------
    D------------------------------
    A-5-5-8-8-5-5-8-8-5-5-5-5-5----
    E-3-3-6-6-3-3-6-6-3-3-3-3-3----
    
    Verse
    
    E------------------------------
    B------------------------------
    G------------------------------
    D------------------------------
    A------------------------------
    E-3-3-6-6-3-3-6-6-3-3-3-3-3----
    
    Riff(si…
  • INTRO
    E--------------------------------------------------------------
    B--------------------------------------------------------------
    G----------5-5-5-5-5-5----3-3-3-3-3-3----7-7-7-7-7-7-7-7-/8-7-
    D----------5-5-5-5-5-5----3-3-3-3-3-3----7-7-7-7-7-7-7-7-/8-7-
    A----------3-3-3-3-3-3----1-1-1-1-1-1----5-5-5-5-5-5-5-5-/6-5-
    E-1-3-5--------------------------------------------------------
    
    
    E--------------------------------------------------------------
    B--------------------------------------------------------------
    G----------------3-3-3-3-3-3----------(x2)---------------------
    D-5-5-5-5-5-5----3-3-3-3-3-3----3-3-3------3-3-3-3-3-3-3-3-3-3-
    A-5-5-5-5-5-5----1-1-1-1-1-1----3-3-3------3-3-3-3-3-3-3-3-3-3-
    E-3-3-3-3-3-3-------------------1-1-1------1-1-1-1-1-1-1-1-1-1-…
  • Intro & verse
    
    E-5-----6-----5-----8-----6-----5h6p5----
    B---6-----6-----6-----6-----6------------
    G-----5-----5-----5-----5-----5----------
    D----------------------------------------
    A----------------------------------------
    E----------------------------------------
    
    
    Verse
    Cuando…
  • Intro
    
    E---12---8---8---12-10-8-------12---8-12-10----
    B-8----8---8---8---------8---8----8------------
    G----------------------------------------------
    D----------------------------------------------
    A----------------------------------------------
    E----------------------------------------------
    Play…
  • INТRОDUССIУN: G D G C G D C 
    
    
     Yo se que solo he sido un vagabundo, un sinvеrgьеnzа un perro inmundo
     una bala perdida, una hoja caida
     entonces cuando pienso en el pasado, en todo lo que me has dado
     es como el argumento…
Наверх