Аккорды «Carbon Leaf»

Carbon Leaf
Carbon Leaf - рок-группа из США, образованная в 1992 г. Текущий состав: Barry Privett - вокал, гитара Terry Clark - гитара, вокал Carter Gravatt - гитара, вокал Jason Neal - барабаны Jon Markel - бас Carbon Leaf - рок-группа из США, образованная в 1992 г. Текущий состав: Barry Privett - вокал, гитара Terry Clark - гитара, вокал Carter Gravatt - гитара, вокал Jason Neal - барабаны Jon Markel - бас Скрыть...
Популярные аккорды Carbon Leaf:
алфавиту | просмотрам | случайно
  • G: 320033
    D: 000232
    A: 002220
    
    standard tuning.
    
    intro: 
    
    e-|-----0--------3-------5-5-3-3-2-2---|
    b-|-3-3----3-3-3---3-3-3-------------3-|
    
    
    Couldn't ask for a better day, two by two
      D                             A…
  • D  xx0232
    Am x02210
    C  x32010
    G  230003
    
    
    e-5--------------------------------------------------------------------
    b-7--------------------------------------------------------------------
    g-7--------------------------------------------------------------------
    d-7--0-0-0-4-0-0-0-4-5-7-0-0-------5-5-5-4-4-4-------------------------
    a-5--------------------------3-----------------5-5-5-----3-------0-----
    E-5----------------------------5-3-------------------3-5---5-3-0-------…
  • e------------------------------
    b------------------------------
    g--------------9--9------------
    d-----11-------9--9------------
    a-------11-----7--7------------
    e-9-9-------7--7--7------------
    
    Play four times
    
    e------------------------------
    b------------------------------
    g-------------7-7-7-7----------
    d-----9-------7-7-7-7----------
    a-------9-----5-5-7-7----------
    e-7-7-----7-5-5-5-5-5----------
    
    Play…
  • e-----------------|------------------
    b-----------------|------------------
    g-----4------2----|------------------
    d---4----2h4------|-4-2-2--------2---
    a-2------------5--|-------5-2--------
    E-----------------|-----------5------
    
    Play…
  • Intro:
    
    Gtr 1 (strum quickly)		Gtr 2 (on second Dsus2)
    
        Bsus4  Dsus2   E
    e-----0------0-----0---		e---------
    B-----0------3-----0---		B---------
    G-----4------2-----1---		G---2s16--
    D-----4------0-----2---		D---------
    A-----2------------2---		A---------
    E------------------0---		E---------
    
    Gtr…
Наверх