Аккорды «Caroline's Spine»

Caroline's Spine
Caroline's Spine - альтернативная рок-группа из Талса (Оклахома, США). Группа состоит из вокалиста/гитариста Jimmy Newquist, гитариста Mark Haugh, басиста Scott Jones и барабанщика Jason Gilardi. Одноименный дебютный альбом Caroline's Spine выпущен в 1993 г. Дискография: 1993 - Caroline's Spine 1994 - … So Good Afternoon 1995 - Ignore the Ants 1996 - Huge 1997 - Monsoon 1999 - Attention Please 2000 - Like it or Not 2002 - Live 2002 - Overlooked 2003 - The Grovers 2006 - The Collection 2007… Читать полностью... Caroline's Spine - альтернативная рок-группа из Талса (Оклахома, США). Группа состоит из вокалиста/гитариста Jimmy Newquist, гитариста Mark Haugh, басиста Scott Jones и барабанщика Jason Gilardi. Одноименный дебютный альбом Caroline's Spine выпущен в 1993 г. Дискография: 1993 - Caroline's Spine 1994 - … So Good Afternoon 1995 - Ignore the Ants 1996 - Huge 1997 - Monsoon 1999 - Attention Please 2000 - Like it or Not 2002 - Live 2002 - Overlooked 2003 - The Grovers 2006 - The Collection 2007 - Captured 2008 - Untitled Скрыть...
Популярные аккорды Caroline's Spine:
алфавиту | просмотрам | случайно
  • Guitar 1                    Intro
    e:-----------------------------------------------------------|
    B:-----------------------------------------------------------|
    G:-----------------------------------------------------------|
    D:---------------------------14-14-14-17-17-17-14-14---------|
    A:--14-14-14-14-14-14-14-14--15-15-15-15-15-15-15-15-14-14-14|
    E:--0--0--0--0--0--0--0--0---------------------------0--0--0-|
    
    e:------------------------|
    B:------------------------|
    G:------------------------|
    D:------------------------|
    A:-14-14-14-14-14---------|
    E:-0--0--0--0--0--15-b(17)|
    
    Guitar…
  • Tuning: Standard
     
                               Intro
    e|-------------------------------------------------------------------------9--|
    B|9-----9-----9--10--9--------12-----10----9------9-------9--10--9------------|
    G|-9-9----9-9-----------9-9-9----9------9----9-9---9-9--------------9-9-9-----|
    D|----------------------------------------------------------------------------|
    A|----------------------------------------------------------------------------|
    E|----------------------------------------------------------------------------|…
  • Intro Pt.
    G|-------------------------------------------------
    D|-------------------------------------------------
    A|-------------------------------------------------
    E|--3--3---x-x-x-x-x-x---3--3----x-x-x-x-x-x-------
    Pt.
    G|-------------------------------------------------
    D|-------------------------------------------------
    A|-------------------------------------------------
    E|--0--0---3-3--2-2----0--0---3-3--2-2-------------
    
    
    Verse…
  • Intro  - Guitar 1
    Eb :------------------|----------------|------------------|
    Bb :------------------|----------------|------------------|
    Gb :------------------|----------------|------------------|
    Db :------------------|----------------|------------------|
    Ab…
Наверх