Аккорды «Catch 22»

Catch 22
Catch 22 - это 3rd wave ska, группа основанная в Нью-Джерси в 1995. Основатель группы трубач Kevin Gunther. В 1996 они выпустили самодельные демо Rules of the Game. Все 2000 записей были мгновенно распроданы. Florida's Toybox Records был их первым лейблом. Подписав контракт с Victory они выпустили первый студийный альбом Keasbey Nights. группу покинул Ansley и был заменен Pat Calpin. Следующим был Kalnoky, который решил продолжить учёбу. Пэту пришлось играть на гитаре, Pat "Mingus" Kays за басами,… Читать полностью... Catch 22 - это 3rd wave ska, группа основанная в Нью-Джерси в 1995. Основатель группы трубач Kevin Gunther. В 1996 они выпустили самодельные демо Rules of the Game. Все 2000 записей были мгновенно распроданы. Florida's Toybox Records был их первым лейблом. Подписав контракт с Victory они выпустили первый студийный альбом Keasbey Nights. группу покинул Ansley и был заменен Pat Calpin. Следующим был Kalnoky, который решил продолжить учёбу. Пэту пришлось играть на гитаре, Pat "Mingus" Kays за басами, а Jeff Davidson был их вокалом. Новый состав они испытали, выпустив в 1999 году Washed Up!. Группа начала усилено гастролировать по стране. Jamie Egan, Davidson и Mike Soprano покинули группу в 2001 поэтому в это время группа очень нуждалась в новых музыкантах, которых пришлось искать даже в интернете. Вступают Ian Mckenzie, Edna's Goldfish. После безуспешных поисков они продолжили выступать как есть, с совместным вокалом Ryan Eldred и Kevin Gunther. Третий их полный альбом Dinosaur Sounds (2003) (в это время группа бывшего лидера Catch 22 Томаса Кланоки Streetlight Manifesto выпустили дебютный Everything Goes Numb), оба альбома подогревали вражду между группами. Позднее они помирились и заявили, что вражда позади. Permanent Revolution это название их 4го альбома, вышедшего в Июне 27, 2006. Он может быть классифицирован как концептуальный альбом, Посвещённый жизни Льва Троцкого (1879 - 1940), название альбома заимствовано из теории Троцкого о постоянной революции. Скрыть...
Популярные аккорды Catch 22:
алфавиту | просмотрам | случайно
  • Tuning:standard
    
    
    e|------------------------------------------------------------------------------------|
    B|------------------------------------------------------------------------------------|
    G|------------------------------------------------------------------------------------|
    D|--7-5-4-4-4-4-----------------------------------------------------------------------|
    A|5-5-3-2-2-2-2-----------------------------------------------------------------------|
    E|3-----------------------------------------------------------------------------------|
    
    e|--------------------------------------------------------------------------------|
    B|--------------------------------------------------------------------------------|
    G|--------------------------------------------------------------------------------|
    D|--7-5-7-------------------------------------------------------------------------|
    A|5-5-3-5-------------------------------------------------------------------------|
    E|3-------------------------------------------------------------------------------|
    
    e|-----------------------------------------------------------------------------|
    B|-----------------------------------------------------------------------------|
    G|-----------------------------------------------------------------------------|
    D|5---7------------------------------------------------------------------------|
    A|3-5-5-5----------------------------------------------------------------------|
    
    E|--3---3-------------------------------------------------------------------|
    
    e|---------------------------------------------------------------------------|
    B|---------------------------------------------------------------------------|
    G|---------------------------------------------------------------------------|
    D|---------------------------------------------------------------------------|
    A|5--------------------------------------------------------------------------|
    E|3--------------------------------------------------------------------------|play…
  • Solo:
    
    e|-----------------------------------------------------------------------------|
    B|----------------15-------------------------------15--------------------------|
    G|----------------------14-------------------14-16--------------------14-16----|
    D|-------9h10p9------17-------------9h10p9---------------12-10p9h10---------17-|
    A|-10h12--------9-------------10h12--------9------------------------9----------|
    E|-----------------------------------------------------------------------------|
    
    e|---------------------------------------------------------------------------|
    B|-12--11-12----12--11-12----12-------15-17-15--------12--15-------------|
    G|-12--11-12----12--11-12----12-14h16----------16-14--12--14-------------|
    D|---------------------------------------------------------------------------|
    A|---------------------------------------------------------------------------|
    E|---------------------------------------------------------------------------|
    
    e|----15---------------------15----15-14-------------------------------------|
    B|-12-----17-15-----------15-------------17-15-----------------12----------|
    G|-12------------16-15h16----------------------17-16-14h16p14--12----------|
    D|---------------------------------------------------------------------------|
    A|---------------------------------------------------------------------------|
    E|---------------------------------------------------------------------------|…
  • Intro / Outro:
    |----------|
    |--5----6--|
    |--6----7--|
    |--7----8--|
    |----------|
    |----------|
    
    
    Verse:
    |--------------------|--------------------|
    |--5----6----3----5--|--1----3----1----3--|
    |--6----7----4----6--|--2----4----2----4--|
    |--7----8----5----7--|--3----5----3----5--|
    |--------------------|--------------------|
    |--------------------|--------------------|
    
    
    Chorus:
    |--------------------|
    |--1----8----6----1--|
    |--2----9----7----2--|
    |--3----10---8----3--|
    |--------------------|
    |--------------------|
    
    
    Post-Chorus
    |--------------------|--------------------|-----|
    |--1----3----6----8--|--5----3----1----0--|--5--|
    |--2----4----7----9--|--6----4----2----1--|--6--|
    |--3----5----8----10-|--7----5----3----2--|--7--|
    |--------------------|--------------------|-----|
    |--------------------|--------------------|-----|…
  • intro
    5--4--7--4--5--4--2--4-------|
    5--5--7--5--5--5--3--5-------|
    6--4--8--4--6--4--2--4-------|
    -----------------------------|
    -----------------------------|
    -----------------------------|
    
    verse
    5--4--7--4----|
    5--5--7--5----|
    6--4--8--4----|
    --------------|
    --------------|
    --------------|
    
    
    chorus
    5--2--5--4----|
    5--3--5--5----|
    6--2--6--4----|
    --------------|
    --------------|
    --------------|
    
    verse
    5--4--7--4----|
    5--5--7--5----|
    6--4--8--4----|
    --------------|
    --------------|
    --------------|
    
    5--2--5--4----|
    5--3--5--5----|
    6--2--6--4----|
    --------------|
    --------------|
    --------------|…
  • Intro: 
    C   G   F   E     C   Bm  C
    e|---------------------------------
    B|-----1---3-------------1---------
    G|-------0---0-9---10------0-4---3-
    D|---------------9----10-------4---
    A|-----3---2---7---8-----3---2---1-
    E|---------------------------------
    
    
    C…
  • Intro:
    
    e-9--9--9--9--12-12-12-12-12-12-12-12-12-12-12-10
    b-10-10-10-10-10-10-10-10-10-10-10-10-10-10-10-10
    g-9--9--9--9--9--9--9--9--11-11-11-11-10-10-10-10
    d------------------------------------------------
    a------------------------------------------------
    e------------------------------------------------
    
    e-9--9--9--9--x--9--9--x-7--7--x--5--5--5--5--5--5
    b-10-10-10-10-x--9--9--x-9--9--x--5--5--5--5--5--5
    g-9--9--9--9--x--9--9--x-9--9--x--6--6--6--6--6--6
    d---------------------------------7--7--7--7--7--7
    a-------------------------------------------------…
  • Intro/Verse:
    G----10---7---------------7----------|--------------10~7~-------------
    D--8----8---8-10-7---7-10---10-7-----|--------5-6-8------8------------
    A------------------8-------------8-6-|--5-6-8--------------6---6-6-6-6
    E------------------------------------|-6---------------------6--------
    
    
    G---------------------------------------------------------------------
    D-----7--8--10--------------------------------------------------------
    A--8-(6)(5)-----------------------------------------------------------
    E-----------(8)-------------------------------------------------------
    
    
    Chorus:
    G---------------------------------------------------------------------
    D---------------------------------------------------------------------
    A--6-6-6-6-------------------------6-6-6-6-5-5-5-5--------------------
    E----------6-6-6-6-8-8-8-8-6-6-6-6-----------------8-8-8-8-6-6-6-6----
    
    G---------------------------------------------------------------------
    D----5-8-5---------------------------5-8-5-----------5-8-5------------
    A--6---------5-8-5---10-8-6--5-8-5-6---------5-8-5-6------------------
    E----------6-------8--------6--------------6--------------------------
    
    G---------7-8-7----7--------------------------------------------------
    D----7-10-------10----------------------------------------------------
    A--8------------------------------------------------------------------
    E---------------------------------------------------------------------…
  • Verse
    
    G:---------------------------------------------------------------
    D:-----------------777-5---5-------------------------5-3-2-0-----
    A:-3--3--33-32-----------7---7---0-1h3----0-1-3------------------
    E:-----33--3---5-5-------------1-------11-------3333-------------
    
    Chorus
    
    G:---------------------------------------------------------------
    D:---------------------------------------------------------------
    A:-33333333------------------------------------------------------
    E:----------55555555-11111111-33333333---------------------------…
  • G|-------------------------------------------------------
    D|-------------------------------------------------------
    A|------------------6-7-9------7----------------------
    E|-0--0-5-4-7-7------------5-5----5----2-2-2-4-5-4-2…
  • Intro
    e|---------------------------------------------------------------------------|
    B|---------------------------------------------------------------------------|
    G|---------------------------------------------------------------------------|
    D|-7------------------7------------------------------------------------------|
    A|-5-444-5555-9-7-555-5-7777777----------------------------------------------|
    E|---222-3333-7-5-333---5555555----------------------------------------------|
    PM-----^-^^^^------^^---^^^^^^-----------------------------------------------|…
  • Solo:
    e-10-10-10----------------|--------------------------|
    B----------10h12-10-8---8-|---13-12-10-12-10-8-----8-|
    G---------------------9---|-9------------------9-7-7-|
    D-------------------------|--------------------------|
    A-------------------------|--------------------------|
    E-------------------------|--------------------------|
    
    e--------8-7-7--10-7-7--8-7-7--10-7-7-|---------------8-7----------|
    B-----8------8-------8------8-------8-|-----8------8------8------8-|
    G-7-9-7-------------------------------|-7-9-7--7-9-7------7--7-9-7-|
    D-------------------------------------|----------------------------|
    A-------------------------------------|----------------------------|
    E-------------------------------------|----------------------------|
    
    e-----7---------------7---------------7--------------------|
    B-8-8---8-8-10-8--8-8---8-8-10-8--8-8---8-8-10-8--8-8-10-8-|
    G-7~~~~~~~~~~~----7~~~~~~~~~~~~~--7~~~~~~~~~~~~~--7-7--7-7-|
    D----------------------------------------------------------|
    A----------------------------------------------------------|
    E----------------------------------------------------------|
    
    e---------------------|---------------------|
    B-8p7-8p7-------------|---------------------|
    G---------9-7---7-----|---------------------|
    D-------------9---9-5-|-5h7-5h7/9-7-5p4-7-5-|
    A---------------------|---------------------|
    E---------------------|---------------------|…
  • this is the flute intro
    
    Part 1
    E--------------------------------------------------------------
    B--------------------------------------------------------------
    G--9-999-7--9-9-99-11-12-11-9-999-7-------9-9-7-7-6-6-8-9-10---
    D----------9------------------------9-7-9--9---9---7-----------
    A--------------------------------------------------------------
    E--------------------------------------------------------------
    
    E--------------------------------------------------------------
    B--------------------------------------------------------------
    G--9-999-7-----------------------------------------------------
    D---------9-7-9------------------------------------------------
    A--------------------------------------------------------------
    E--------------------------------------------------------------…
  • intro
    
    |---------------------------------|--------2--2------1-3-3-1-1-------|
    |-----1---------1--1--------1-----|--------2--2----------------------|
    |-----0---------0--0--------0-----|----------------------------------|
    |---2------0--0--------2--2-------|----------------------------------|
    |---3------2--2--------0--0-------|---2--2---------3-----------------|
    |---------------------------------|---3--3---------1-----------------|
    
    |--2--2-2-2-2-2-2-----------------|----------------------------------|
    |--2--2-2-2-2-2-2-----------------|----------------------------------|
    |--0--0-0-0-0-0-0-----------------|----------------------------------|
    |--0------------------------------|----------------------------------|…
Наверх