Аккорды Чайф - Она мила

Добавлено: @romashka
Дата добавления: 16 Марта 2013г.
Рейтинг:
5.0
Просмотров: 211
Транспонировать - +
Intro:
 E           H       E           H       E
-------0-----2-2-4-2-------0-----2|4-4-2-0-----0---------0-|
-----0---0---4-4-4-4-----0---0---4|4-4-----0h2---0-0---0---|
---1-------1-4-4-4-4---1-------1-4|------------------0-----|
-2-----------4-------2------------|------------------------|
-------------2-------------------2|------------------------|
-------------s--------------------|------0-----------------|

 E                 A         A6 H6 E       H
-0-----0---------0-----0-----2--4--0-0-----2-
---0h2---0-0---0---------2---2--4--0---0---4-
-------------0-------2-----2-2--4--1-----1-4-
-----------------------------2--4--2-------4-
-------------------0---------s--s--2-------2-
-0---------------------------------0-------s-
и далее по такой схемке играть всю песню

      E       E
Она мила И молода,
    A          A6    H6    E     H
Не вдруг - Она была такой всегда.
И он бы мог Спокойно жить,
Если б сумел Ее не полюбить.
И он пытался ей звонить,
Он сам себя хотел отговорить.
Она в ответ Ему молчала -
О том, что так она уже устала.

Припев:
  F#m        Cm  F#m       Cm
   И смотрит он  в пустой экран,
   A                           H
   Он вновь читает фантастический роман,
   И, с легкой грустью на лице,
   Он знает, чем закончится в конце.

И где-то дождь  июньский льет,
И он ее, и он ее, конечно, ждет.
Она летит Ему навстречу,
И, может быть, и, может быть, еще не вечер.

Припев. - 2р

Она мила...
comments powered by Disqus
Наверх