Аккорды «Chevelle»

Chevelle
Chevelle - альтернативная группа, образованная в Чикаго, штате Иллинойс, в 1994 году, и изначально состоящая из 3-х родных братьев - Пита (вокал, гитара), Джо (бас-гитара) и Сэма (ударные) Лофлеров. В июле 2005 года Джо покинул группу, и на его место пришёл Дин Бернардини. Несмотря на тяжесть музыки, Chevelle никогда открыто не причисляли к металлу. Вообще, стиль их музыки чаще всего сравнивают со стилем A Perfect Circle, по большей части благодаря схожести вокала Пита Лофлера и Мэйнарда Джеймса… Читать полностью... Chevelle - альтернативная группа, образованная в Чикаго, штате Иллинойс, в 1994 году, и изначально состоящая из 3-х родных братьев - Пита (вокал, гитара), Джо (бас-гитара) и Сэма (ударные) Лофлеров. В июле 2005 года Джо покинул группу, и на его место пришёл Дин Бернардини. Несмотря на тяжесть музыки, Chevelle никогда открыто не причисляли к металлу. Вообще, стиль их музыки чаще всего сравнивают со стилем A Perfect Circle, по большей части благодаря схожести вокала Пита Лофлера и Мэйнарда Джеймса Кинана. Дебютный альбом Point #1 увидел свет 4 мая 1999 года, и был спродюсирован самим Стивом Альбини, до этого работавшим с такими грандами, как Nirvana, Pixies и Bush. Во время турне в поддержку альбома Chevelle выступили с такими коллективами, как Powerman 5000, Static-X, Sevendust. Второй альбом группы Wonder What's Next был выпущен 8 октября 2002 года на лейбле Epic, принадлежащем Sony Music. Именно этот альбом смог вывести группу в мейнстрим. Трек Red смог в короткие сроки добраться до 5-го места чарта Billboard, а спустся 2 месяца после выхода альбом достиг платинового статуса, то есть разошёлся тиражом только на территории США в количестве миллион копий. Группу пригласили участвовать на легендарном фестивале OzzFest, а по итогам 2003 года группа отыграла более 500 концертов. 11 ноября 2003 года выходит живой альбом группы, получивший название Live From The Road и сведённый из различных выступлений группы. 21 сентября вышел следующий, третий по счёту альбом группы This Type of Thinking (Could Do Us In), записанный уже на собственном рекорд-лейбле. В первую неделю продаж альбом занял 8-е место в чарте Billboard. Запись следующего диска группы проходила уже без одного из основателей коллектива - в июле 2005 года Джо Лофлер, бас-гитарист, покинул группу. На его место в августе 2005 года приходит Дин Бернардини, сводный брат братьев Лофлер, до этого работавший ударником в другой команде. 3 апреля 2007 года вышел альбом Vena Sera. По стилистике музыканты вернулись к более тяжёлому звуку времён Wonder What's Next, что оценили фанаты группы, признавшие этот альбом лучшим. Однако мнение фэнов разошлось с мнением критиков, которые нашли в альбоме много повторений по сравнению с другими музыкантами (прежде всего Tool, Evanescence, Nickelback), хотя и признали диск неплохим. 31 августа 2009 года группа выпускает пятый студийный альбом под названием Sci-Fi Crimes, который занял 6 место в чарте рок альбомов Billboard и был продан в количестве 46000 копий. При записи альбома 2009 года Chevelle решили сделать противоположность альбому «Vena Sera» с его идеальным звуком и максимально приблизить своё звучание к концертному. Одновременно с этим они удивляют тематикой своих песен. По словам Пита, их вдохновил друг группы, искренне и очень эмоционально увлекающийся потусторонними явлениями. Сингл с альбома «Jars» порвал чарты. За выходом альбома последовал тур в поддержку альбома осенью 2009 года. В январе 2011 года выходит концертный DVD «Any Last Words?», записанный в клубе Metro в Чикаго. Концерт был посвящен 10-летию группы. В этом же клубе состоялся их первый концерт. 10 октября 2011 выходит шестой студийный альбом «Hats Off To the Bull». Он записан под впечатлением беспорядков и акций протеста, творящихся в это время в стране, что пропитало его грустью и злостью одновременно. Хит «Face To The Floor» надолго оккупировал все чарты. Скрыть...
Популярные аккорды Chevelle:
алфавиту | просмотрам | случайно
  • Verse
    P.M.-------------------------------
    
    Eb ------------------------------------------|
    Bb ------------------------------------------|
    Gb ------------------------------------------|
    Db ---------3-33-33---------8-88-88----------|
    Ab…
  • Tuning: Standard (EADG)
    
    
    Intro/Verse
    G-----------------------------|
    D-----------------------------|
    A---22222222222222222222222---|
    E-----------------------------|
    
    Pre-chorus
    G---------------------------------------------|
    D---------------------------------------------|
    A---5-5-7-5---5-5-7-5---7-7-9-7---7-7-9-7-----|
    E-----------7---------7---------7---------7---|
    
    Chorus
    G-------------------------------------------------------------|
    D-------------------------------------------------------------|
    A---222222222222222222222--5-4--------------------------------|
    E------------------------------2-33333333333333333333333333---|
    
    Post-Chorus
    G-----------|
    D----0--0---|
    A---2--2----|
    E-----------|
    
    Heavy…
  • -INTRO(x1)
    e----------------------------------------------
    B----------------------------------------------
    G-------------------------8-8-8-8-8-8----------
    D-------------------------x-x-x-x-x-x-2-2-2-2-2
    A-9-9-9-9-9-9-6-6-6-6-6-6-9-9-9-9-9-9-2-2-2-2-2
    E-7-7-7-7-7-7-4-4-4-4-4-4-7-7-7-7-7-7-0-0-0-0-0-
    
    -Pre…
  • {INTRO}   
    
    
       v-1 second passes before rake starts  
    A|-.-------.-----zz.----------------------------------------------|
    D|-.zzzzzzz.zzzzz--.----------------------------------------------|
    
    
    e|--------------------------------------------------------------------------------
    B|--------------------------------------------------------------------------------
    G|--7--------------------7-----------------7--------------------7----------------
    D|4-7-4-4-4-4-0-0--0-0-4-7-4-4-4-4-x-0~~-4-7-4-4-4-4-0-0--0-0-4-7-4-4-4-4-x--x--x-
    A|4-5-4-4-4-4-0-0--0-0-4-5-4-4-4-4-x-0~~-4-5-4-4-4-4-0-0--0-0-4-5-4-4-4-4-x--x--x-
    D|4---4-4-4-4-0-0--0-0-4---4-4-4-4(0)0~~-4---4-4-4-4-0-0--0-0-4---4-4-4-4(4)(4)(4)
    
    -------------------------------------------------------------------------------|
    -------------------------------------------------------------------------------|
    ---7--------------------7-----------------7--------------------7---------------|
    -4-7-4-4-4-4-0-0--0-0-4-7-4-4-4-4-x-0~~-4-7-4-4-4-4-0-0--0-0-4-7-4-4-4-4-x-0~~-|
    -4-5-4-4-4-4-0-0--0-0-4-5-4-4-4-4-x-0~~-4-5-4-4-4-4-0-0--0-0-4-5-4-4-4-4-x-0~~-|
    -4---4-4-4-4-0-0--0-0-4---4-4-4-4(0)0~~-4---4-4-4-4-0-0--0-0-4---4-4-4-4(0)0~~-|
    
    
    {VERSE}…
  • Intro: Clean/listen to song to get correct strumming
    |-----------------------------------------------------------------------------|
    |-----------------------------------------------------------------------------|
    |-----------------------------------------------------------------------------|
    |-2-2-2-2-2-2-2-2-2-2-2-0-3---------------------------------------------------|
    |-2-2-2-2-2-2-2-2-2-2-2-0-3---------------------------------------------------|
    |-0-0-0-0-0-0-0-0-0-0-0-0-1---------------------------------------------------|
    
    
    Chorus:…
  • Overdrive off:
    
    intro:
    --------------------------------]                               /[-----------8]
    --------------------------------]                             //[8--88-88-8-8]
    --------------------------------]  repeat…
  • riff a (full distorcion)
    
    e|---------------------|
    B|---------------------|
    G|---------------------|
    D|-5-5-5-5-5-5-6-5-----|
    A|-5-5-5-5-5-5-6-5-----|
    E|-3-3-3-3-3-3p4p3-----|  8x
    
    Riff b (clean)
    e|---------------------------------------------------------|
    B|---------------------------------------------------------|
    G|---------------------------------------------------------|
    D|---------------------------------------------------------|
    A|-5-5-5-5-5-5-5-5-5-5-5-5-5-5-5-4-4-4-4-4-4-4-4-4-4-4-4-4-|
    E|---------------------------------------------------------|…
  • Intro/Verse:
    (pretty clean, a little distortion. play very loosly often hitting open
    strings)
    e:----------------------------------------
    B:----------------------------------------
    G:--6666-4444-----------------------------
    D:--4444-2222-4444444-5555-7777-9999-555--
    A:------------2222222-5555-7777-9999-555--
    E:--------------------3333-5555-7777-333--
    
    Chorus:
    (distortion)
    e:-------------------------------------------
    B:-------------------------------------------
    G:-------3--4-------3--4---------------------
    D:--22-2-22-2--22-2-22-2--55555555-77777777--
    A:--22-2-22-2--22-2-22-2--55555555-77777777--
    E:--00-0-00-0--00-0-00-0--33333333-55555555--
    
    Solo:
    (distortion)
    e:----------------------------------
    B:---------------------3-2-3-3------
    G:---------------------2-2-2-2-2~~--
    D:--22222222-22222222--0-0-0-0------
    A:--22222222-22222222---------------
    E:--00000000-00000000---------------
    
    Outro:
    Just…
  • Tuning drop d down step and a half = BFBEGC
    
    Intro/verse
    C|------------------------------------------------------------------------------
    G|------------------------------------------------------------------------------
    E|------------------------------------------------------------------------------
    B|------------------------------------------------------------------------------
    F|------------------------------------------------------------------------------
    B|-7-7-x-x-x-x-7-7-7-7-x-x-x-x-7-7-7-7-x-x-x-x-7-7-7-7--7-7-7-7-5-5-5-5--3-3----…
  • Tuning: Drop D (D A D G B E)
    
    
    Intro 
    (These notes are all harmonics. just let them ring)
    E|------------------------||
    B|------------------------||
    G|------------------------||
    D|------(7)--------(5)----||
    A|-----------(4)----------||
    D|--(9)-------------------||
    
    
    Verse
    E|-------------------------------------||
    B|-------------------------------------||
    G|-------------------------------------||
    D|-0-0-00-0-0--2-22-2-2--4-44-4-4------||
    A|-0-0-00-0-0--0-00-0-0--0-00-0-0------||
    D|-0-0-00-0-0--0-00-0-0--0-00-0-0------||…
  • Tuning: Drop D
    
    Intro- W/ Distortion
    E-------------------------------------------------------------------------------
    B-------------------------------------------------------------------------------
    G-------------------------------------------------------------------------------
    D-------------------------------------------------------------------------------
    A-------------------------------------------------------------------------------
    D---99-99-99-99-9h10p9-99-99-99-99-xxxx-----X5----------------------------------
    
    Riff…
  • Tuning: D A D G B e
    
    
    0:00-0:17
    e|-------------------------------------------------------|
    B|-------------------------------------------------------|
    G|-------------------------------------------------------|
    D|-------------------------------------------------------|Repeat…
  • Tuning: DGCFAD
    
    
    Intro- number of strums may be off, but you'll get the idea when you listen to the song. 
    ----------------------------------------------------------------------------------------------------------------------
    -------------------------------------------------------------------------------0-----------0--------------------------
    -------------------------------------------------------------------------------0-----------0--------------------------
    -9-9-9-9-9-9-9-9-9-9-9-9-9-9--5-5-5-5-5-5-5-5-5-5--4/5-5-5---4/5-5-5-----2-2-2-2-2-2-2-2-2-2--5-5-5-5-5-5-5-5-5-5-5-5-
    -9-9-9-9-9-9-9-9-9-9-9-9-9-9--5-5-5-5-5-5-5-5-5-5--4/5-5-5---4/5-5-5-----2-2-2-2-2-2-2-2-2-2--5-5-5-5-5-5-5-5-5-5-5-5-
    -7-7-7-7-7-7-7-7-7-7-7-7-7-7--3-3-3-3-3-3-3-3-3-3--2/3-3-3---2/3-3-3-----0-0-0-0-0-0-0-0-0-0--3-3-3-3-3-3-3-3-3-3-3-3-
    Chorus-…
  • Verse:
    F|--------------------------------------------------------------|
    C|--------------------------------------------------------------|
    G|--------------------------------------------------------------|
    C|-5--1--5--1>----5--1--5--1x-1x--5--1--5--1>----5--1--5--1x1x1x|
    
    Chrous:
    F|------------|
    C|------------|
    G|------------|
    C|-5--1--5--1-|…
  • intro
    |----------------------------------------------0--------------|
    |----0---0---0---0---0---0---0---0---0---0---0---0------------|
    |o-4---4---4---4---4---4---4---4---4---4---5-----------------o|
    |o-----------------------------------------------------------o|
    |-------------------------------------------------------------|
    |-------------------------------------------------------------|
    
    |----------------------------------------------0-------------|
    |----0---0---0---0---0---0---0---0---0---0---0---0-----------|
    |o-4---4--4brb-4---4--4brb-4---4--4brb-4---5----------------o|
    |o----------------------------------------------------------o|
    |------------------------------------------------------------|
    |------------------------------------------------------------|
    
    riff…
  • Tuning is Eb Ab Db Gb Bb eb (crazy a chevelle song not in drop D)
    
    There are three chords on this song, the main riff goes:
    eb--7----7---
    Bb--7----7---
    Gb--9----9---
    Db--9----9---
    Ab--7----7---
    Eb--7----0---
    
    Just repete…
  • Tune to Drop D.
    
    -|--------------------------------------------------------|-------------------
    -|--------------------------------------------------------|-------------------
    -|-10-10-10-10-10-10-10-10-10-10-1097-7-7-7-7-7-7-7-7-7-|-------------------
    -|--------------------------------------------------------|-------------------
    -|--8--8--8--8--8--8--8--8--8--8--8-7-5-5-5-5-5-5-5-5-5-5-|-------------------
    -|--------------------------------------------------------|-------------------
    Intro.…
  • Dropped D Tuning
    
    
    Intro:
    Feedback
    e:--@@@------------@@@--|
    B:--@@@------------@@@--|
    G:--@@@------------@@@--|
    D:--@@@-0---0--3-0-@@@--|
    A:--@@@-0---0--3-0-@@@--|
    D:--@@@-0---0--3-0-@@@--|
    
    Chorus:
    D:--0--5-7-5-7--5-7-5-7-5-7)--------------333-333--|
    A:--0-------------------------repeat-then-333-333--|
    D:--0-------------------------------------333-333--|
    
    Verse:
    (clean)
    mess…
  • Tuning: A, C, or D.
    
    
    e|---------------------------------------------------------------------------|
    B|---------------------------------------------------------------------------|
    G|---------7--7--7------7--7--7------7--7--7-------7--7--7-------------------|
    D|-------5---5--5------5--5--5------5--5--5-------5--5--5--------------------|
    A|----7-----7--7----7---7---7----7----7--7-----7----7--7---------------------|
    E|---------------------------------------------------------------------------|
    
    e|---------------------------------------------------------------------------|
    B|---------------------------------------------------------------------------|
    G|----14~~~~~17--10~~~~~~--14--7~~~~~--10-3-2----------------------------|
    D|---------------------------------------------------------------------------|
    A|---------------------------------------------------------------------------|
    E|---------------------------------------------------------------------------|
    
    e|---------------------------------------------------------------------------|
    B|---------------------------------------------------------------------------|
    G|---------------------------------------------------------------------------|
    D|----8-8-8-8---6-6-6-6------------------------------------------------------|
    A|----6-6-6-6---4-4-4-4---9-9-9-9-9-9-9--6-6---------------------------------|
    E|------------------------9-9-9-9-9-9-9--6-6---------------------------------|
    
    	Mute…
  • Dropped D Tuning
    
    Intro:
    D:--33-33-33-33-33-33-33-3543--|
    A:--33-33-33-33-33-33-33-3543--|
    D:--33-33-33-33-33-33-33-3543--|
                             /   
                             muted
    Bridge:
    D:--0~----
    A:--0~-PM-
    D:--0~----
    
    Verse:
    (clean)
    B:------3-----3------3-----3--|
    G:--3-3-3-3-3-3--3-3-3-3-3-3--|
    D:--3-3-3-3-3-3--3-3-3-3-3-3--|
    A:--1-1-----------------------|
    D:---------------5-5----------|
    
    Chorus:
    D:--3p2p0-3p2p0-3p2p0-3p2p0-xxx--|
    A:--3p2p0-3p2p0-3p2p0-3p2p0-xxx--|
    D:--3p2p0-3p2p0-3p2p0-3p2p0-xxx--|
    
    Interlude:
    Fast
    A:--4h5----------------------|
    D:------0h5p0-0-5h7-0h3p0-0--|…
  • Tuning:drop B
    
    
    intro
    e|---------------------------------------------------------------------------|
    B|---------------------------------------------------------------------------|
    G|---------------------------------------------------------------------------|
    D|---------------------------------------------------------------------------|
    A|---------------------------------------------------------------------------|
    E|-0-0-3-3-5-5-6-6-5-5-5-5-3-3-3-3-5-5-5-5-3-3-5-5-5-5-3---------------------|
    
    intro…
Наверх