Аккорды «Children Of Bodom»

Children Of Bodom
Children of Bodom - финская англоязычная группа из города Эспоо, играющая музыку в стиле экстремальный пауэр-метал и мелодик-дэт-метал. Стиль группы включает грубый вокал и рваный ритм, агрессивные и сложные гитарные риффы, а также клавишные аранжировки и быстрые мелодичные соло. Точное определение их стиля обсуждается фанатами и прессой. В 1993 году уроженец города Эспоо, Финляндия, музыкант Алекси Лайхо (Alexi Laiho) и его друг детства Яска Раатикайнен (Jaska Raatikainen) сколотили группу, название… Читать полностью... Children of Bodom - финская англоязычная группа из города Эспоо, играющая музыку в стиле экстремальный пауэр-метал и мелодик-дэт-метал. Стиль группы включает грубый вокал и рваный ритм, агрессивные и сложные гитарные риффы, а также клавишные аранжировки и быстрые мелодичные соло. Точное определение их стиля обсуждается фанатами и прессой. В 1993 году уроженец города Эспоо, Финляндия, музыкант Алекси Лайхо (Alexi Laiho) и его друг детства Яска Раатикайнен (Jaska Raatikainen) сколотили группу, название которой после недолгих размышлений единогласно выбрали из всех других предложенных вариантов: «Children of Bodom» (сначала было "IneartheD"). Название появилось из-за событий у озера Бодом, где в 1960 году были зверски убиты подростки — событие, которое долгие десятилетия будоражило финскую общественность... Довольно быстро друзья сформировали команду. Эспоо – город, по российским меркам, небольшой (около 230 000 человек), и многие из музыкантов знали друг друга с детства. На неординарной личности основателя и лидера группы стоит остановиться подробнее. Мультиинструменталист, певец, композитор и поэт Алекси «Wildchild» Лайхо родился 8 апреля 1979 года в Эспоо и начал заниматься музыкой с 5 лет. Первым инструментом была скрипка. А вскоре Алекси подсел на музыку, которую слушала его сестра, и такие группы, как W.A.S.P., Poison, Stone, и в 11 лет распрощался со своей скрипкой, сменив её на гитару. Своё прозвище «Wildchild» Алекси получил по одноимённой песне W.A.S.P. Окончательно на его решение повлияла концертная запись песни Стива Вая (Steve Vai) For the Love of God из альбома Passion And Warfare. Он начал брать уроки мастерства в финской Pop & Jazz Conservatory, где также освоил пианино (эту же консерваторию по классу фортепиано окончил и клавишник группы Янне «Варман» Вирман (Janne «Warman» Wirman), который тоже играл джаз, блюз). Кстати, Алекси и Янне – не единственные в Children Of Bodom, имеющие музыкальное образование: Яска играл на валторне, а гитарист Александер Куоппала (Alexander Kuoppala) – на трубе. Оба - в местных джазовых и блюзовых коллективах, что, несомненно, отражалось на уровне музыки команды. Александер Куоппала: «Очень важно слушать и играть разную музыку, учиться ей. Это даёт представление о том, как использовать инструмент и получить от него по максимуму». В значительной степени на развитие Алекси как музыканта повлиял Роопе Латвала (Roope Latvala) – гитарист, основатель одной из наиболее заметных в то время финских heavy metal команд Stone и просто очень талантливый и разносторонний человек, который несколько лет спустя стал его другом и коллегой по группе Sinergy, а позднее – Children Of Bodom. После экспериментов в группе T.O.L.K. вместе со своими друзьями по консерватории Алекси в 1993 году основал мелодик-дет/пауэр-метал-команду IneartheD, которая позже переродилась в Children of Bodom. Выпустив первый диск Something Wild, группа на пару с Impaled Nazarene посетила с концертом Россию. В Impaled Nazarene Алекси позже был приглашён лидер-гитаристом и проиграл в ней до 2001 года. Алекси также играл в команде Sinergy в качестве лидер-гитариста и клавишника. Кроме этого, в разное время он успел поиграть в Thy Serpent, которая тоже из Эспоо, и в Warmen, а также веселья ради вместе с Томми Лиллманом (Tommi Lillman; экс-Sinergy) и Весой Йокиненом (Vesa Jokinen; Klamydia) создать панк-рок-банду Kylähullut (в переводе с финского – «деревенские идиоты»). Алекси: «Kylähullut никогда не выступает живьём. Это группа для развлечения и отдыха, группа терапии для всех. Мы просто отправляемся в студию на пару-тройку дней, выпиваем и играем панк-рок. Записываем альбомы, конечно, – кое-что очень здорово получается! Но в общем, это всего лишь для веселья, ничего серьёзного. Иногда на следующий день никто и не помнит, что вчера записали…» В возрасте 19 лет Алекси перенес нервный срыв и даже предпринял попытку суицида, приняв 13 таблеток транквилизаторов и запив их виски, но, к счастью, друг Алекси вскоре обнаружил его и доставил в госпиталь. Поправившись, Алекси решил окончательно посвятить себя музыке и совершенствованию своего мастерства как гитариста. Пребывание в нескольких шагах от смерти наложило отпечаток на музыку, тексты и мировоззрение музыканта. Алекси знает что говорит, когда поёт о смерти, и знает цену жизни и место в ней искусства. Мрачная лирика Алекси почти всегда от первого лица – очень сильная часть песен группы: «Большинство идей для песен идут из моей собственной головы, моих мыслей и личных переживаний. Всё о реальной жизни и мои чувства – это и есть моё вдохновение. У нас есть и песни, посвящённые убийству на озере: Lake Bodom, Silent Night, Bodom Night, Children Of Bodom, Bodom Beach Terror. Я создаю новые истории и легенды вокруг этого события: это может произойти снова – убийца всё ещё бродит где-то». В сентябре 2002 года, пока музыканты безмятежно спали после ночной вечеринки, у Алекси были похищены сделанные на заказ гитары Jackson. Алекси срочно нуждался в новых инструментах, но компания Jackson к тому времени была продана Fender Musical Instrument Company и не могла выполнить его заказ как минимум в течение года. Компания ESP Guitars предложила изготовить ему заказные гитары в течение трёх месяцев, и он подписал с ней контракт. Так неизвестный вор повлиял на выбор Алекси ESP Guitars, с которыми он не расстаётся и по сей день. В январе 2006 года ESP Guitars объявили о выходе новой линии гитар Alexi Laiho Signature Models. В том же году японский журнал «Young Guitar» назвал Алекси «лучшим гитаристом 2005 года», его фото неоднократно красовались на обложках этого издания, а также на обложке журнала «Guitar World» вместе с такими мастерами, как Стив Вай и Закк Вайлд (Zakk Wylde). Несмотря на сотрудничество со многими группами, основным проектом и главной любовью Алекси была и остаётся Children of Bodom. С начала образования команды он вместе с другими не менее талантливыми и профессиональными музыкантами делал всё, чтобы их песни были мощными и разнообразными, что им прекрасно удавалось. Дебютный сингл под названием Children of Bodom сразу после выхода стал № 1 в финских чартах и получил платину, а вышедший следом альбом Something Wild в ноябре 1997 года поразил всю Финляндию. Пресса назвала их «новыми королями финского андерграундного металла» («the new kings of Finnish underground metal»). Музыканты сняли своё первое видео на песню Deadnight Warrior, обошедшееся им в довольно скромную сумму – 1000 евро. Объездив всю Европу, в 1999-м группа записала новый альбом Hatebreeder (поначалу названный было «Towards Dead End») – более быстрый, тяжёлый, разносторонний и гармоничный, чем предшественник, и после очередного тура был издан мощный концертник Children of Bodom Tokyo Warhearts, ставший классикой жанра, несмотря на наличие в арсенале только двух студийных альбомов! Диск был выпущен количеством в 20 000 экземпляров и предназначался самым преданным фэнам. Янне Варман: «Выступая в Токио, мы знали, что они в любом случае будут записывать наши концерты. Вернувшись в Финляндию, мы послушали эти записи, и всё оказалось настолько здорово, что мы единодушно решили сделать концертник». В 2000-м сингл Hate Me!, только появившись на свет, попал на первое место в финских чартах и завоевал золото буквально за пару недель, после чего стал и «платиновым» (более 10 000 проданных копий). Пока их сингл «купался в лучах славы», группа записала очередной свой шедевр Follow the Reaper, который появился на прилавках 30 октября 2000 года. Очередной альбом Hate Crew Deathroll увидел свет в январе 2003-го и показал, что мастерство и мощь группы как в музыке, так и в текстах неуклонно растёт. Летом 2003 года гитарист Александр Куоппала покинул команду. На его место встал известный и опытный Роопе Латвала, игравший со многими финскими метал-группами. Первый мировой тур Children Of Bodom прошёл в 2003-2004 годах и имел огромный успех. Группа посетила Северную Америку, а также сыграла в Москве. На следующий год фэны Children Of Bodom получили сразу два подарка: EP с четырьмя песнями Trashed, Lost & Strungout и одноимённый DVD-EP, которые включили в себя и пару каверов на песни Элиса Купера (Alice Cooper) и Andrew W.K. Вообще наши герои испытывают особую слабость к кавер-версиям и в разное время сыграли также каверы таких музыкантов, как Билли Айдол (Billy Idol), Оззи Озборн (Ozzy Osbourne), Scorpions, Poison, W.A.S.P., Slayer, Ramones, Stone, Sepultura, Iron Maiden и даже довольно забавную версию песни Бритни Спирс (Britney Spears) Oops... I Did It Again. Хеннка Т. Блэксмит (Hennka T. Blacksmith): «По-моему, это была идея Янне в одну из пьяных ночей в туре с Lamb Of God. После шоу мы отдыхали в тур-автобусе, а по телевизору шёл канал MTV или ещё что-то и показывали Бритни. Янне вроде первый предложил это. Потом уже, когда мы работали в студии над альбомом, Алекси вспомнил эту шутку Йанне и в результате, по-моему, получилось здорово». Алекси: «Мы просто хотели удивить, даже шокировать публику этим кавером. Но, конечно, не стоит воспринимать это слишком серьёзно. Это было лишь развлекухой». В 2005-м группа выпустила очередной замечательный альбом Are You Dead Yet? (который Алекси называет своим любимым), заслужив ещё большую любовь и уважение как среди фэнов, так и среди коллег по цеху, в очередной раз продемонстрировав Финляндии и всему миру, что Children Of Bodom прочно занимает одно из первых мест в экстремальной музыке. В июне 2006-го группа начала большой тур, в ходе которого выступила вместе со Slayer, Lamb Of God, Mastodon, Thine Eyes Bleed. А на 10 октября сего года намечен выпуск DVD Chaos Ridden Years Stockholm Knockout Live с более чем полуторачасовым концертом, снятым в Стокгольме 5 февраля, всеми официальными клипами группы, за исключением промо Needled 24/7, и другими интересными материалами. Немало написано относительно жанра, в котором играют Children Of Bodom. Их причисляют и к melodic death metal и power metal, к speed metal и к thrash metal, некоторые же называют их музыку «power metal with harsh vocals». Однако Алекси на все вопросы журналистов отвечает просто: «Мы играем МЕТАЛ!». Несомненно одно: музыканты группы, имея прекрасное образование и опыт, впитывают в себя всё лучшее от многих жанров и мастерски создают своё новое неповторимое звучание, завоевывая всё новых и новых поклонников различных направлений тяжелой музыки. Blooddrunk (2008), новый альбом финских металлистов, занял в первую неделю продаж следующие места в чартах: Финляндия: №1 Япония: №2 Швеция: №8 Германия: №10 Ирландия: №51. Blooddrunk получил золотой статус в Финляндии (за продажу более 15 000 копий) по предварительным продажам еще до того, как альбом вышел официально - такое произошло впервые в истории группы. Скрыть...
Популярные аккорды Children Of Bodom:
алфавиту | просмотрам | случайно
  • D||--------------12--------------12--|--------------12------------------------|
    A||--12------12------13------13------|--12------12-------------------12-13-15-|
    F||----------------------------------|------------------14--11-12-14----------|
    C||------14--------------14----------|------14--------------------------------|
    G||----------------------------------|----------------------------------------|
    D||----------------------------------|----------------------------------------|
    
    --------------12--------------12--|---------------------------14-15-17-19--20--|
    --12------12------13------13------|--12-----------12-13-15-17------------------|
    ----------------------------------|------11-12-14------------------------------|
    ------14--------------14----------|--------------------------------------------|
    ----------------------------------|--------------------------------------------|
    ----------------------------------|--------------------------------------------|
    
    --------------12--------------12--|--------------12------------------------|
    --12------12------13------13------|--12------12-------------------12-13-15-|
    ----------------------------------|------------------14--11-12-14----------|
    ------14--------------14----------|------14--------------------------------|
    ----------------------------------|----------------------------------------|
    ----------------------------------|----------------------------------------|
    
    --------------12--------------12--|--12-----------------------------------|
    --12------12------13------13------|------12-12-15-15-10-10-12-12----------|
    ----------------------------------|------------------------------7-7-9----|
    ------14--------------14----------|---------------------------------------|
    ----------------------------------|---------------------------------------|
    ----------------------------------|---------------------------------------|
    
    --------------12--------------12--|--------------12------------------------|
    --12------12------13------13------|--12------12-------------------12-13-15-|
    ----------------------------------|------------------14--11-12-14----------|
    ------14--------------14----------|------14--------------------------------|
    ----------------------------------|----------------------------------------|
    ----------------------------------|----------------------------------------|
    
    --------------12--------------12--|---------------------------14-15-17-19--20--|
    --12------12------13------13------|--12-----------12-13-15-17------------------|
    ----------------------------------|------11-12-14------------------------------|
    ------14--------------14----------|--------------------------------------------|
    ----------------------------------|--------------------------------------------|
    ----------------------------------|--------------------------------------------|
    
    --------------12--------------12--|--------------12------------------------|
    --12------12------13------13------|--12------12-------------------12-13-15-|
    ----------------------------------|------------------14--11-12-14----------|
    ------14--------------14----------|------14--------------------------------|
    ----------------------------------|----------------------------------------|
    ----------------------------------|----------------------------------------|
    
    --------------12--------------12--|--12----------------------------------------|
    --12------12------13------13------|------12-12-15-15-10-10-12-12-8-8-10-10-----|
    ----------------------------------|----------------------------------------7-7-|
    ------14--------------14----------|--------------------------------------------|
    ----------------------------------|--------------------------------------------|
    ----------------------------------|--------------------------------------------|
    
    --------------------|--------------------------------|
    --------------------|--------------------------------|
    --10~---------------|--------------------------------|
    --------------------|--------------------------------|
    --------------------|--2-2--2-2-2-2-2-2-2--2-2-2-2-2-|
    --------------------|--------------------------------|
    
    --------------------------------|--------------------------------|
    --------------------------------|--------------------------------|
    --------------------------------|--------------------------------|
    --------------------------------|--------------------------------|
    --2-2--2-2-2-2-2-2-2--2-2-2-2-2-|--2-2--2-2-2-2-2-2-2--2-2-2-2-2-|
    --------------------------------|--------------------------------|
    
    --------------------|--------------------------------|
    --------------------|--------------------------------|
    --10/---------------|--------------------------------|
    --------------------|--4-4--4-4-4-4-4-4-4--4-4-4-4-4-|
    --------------------|--2-2--2-2-2-2-2-2-2--2-2-2-2-2-|
    --------------------|--------------------------------|
    
    --------------------------------|--------------------------------|
    --------------------------------|--------------------------------|
    --------------------------------|--------------------------------|
    --4-4--4-4-4-4-4-4-4--4-4-4-4-4-|--4-4--4-4-4-4-4-4-4--4-4-4-4-4-|
    --2-2--2-2-2-2-2-2-2--2-2-2-2-2-|--2-2--2-2-2-2-2-2-2--2-2-2-2-2-|
    --------------------------------|--------------------------------|
    
    --------------------------------|--------------------------------|
    --------------------------------|--------------------------------|
    --------------------------------|--------------------------------|
    --4-4--4-4-4-4-4-4-4--4-4-4-4-4-|--4-4--4-4-4-4-4-4-4--4-4-4-4-4-|
    --2-2--2-2-2-2-2-2-2--2-2-2-2-2-|--2-2--2-2-2-2-2-2-2--2-2-2-2-2-|
    --------------------------------|--------------------------------|
    
    --------------------------------|-------------------------------|
    --------------------------------|-------------------------------|
    --------------------------------|-------------------------------|
    --4-4--4-4-4-4-4-4-4--4-4-4-4-4-|--4-4--4-4-4-4-4-4-4----9--11--|
    --2-2--2-2-2-2-2-2-2--2-2-2-2-2-|--2-2--2-2-2-2-2-2-2-9---------|
    --------------------------------|-------------------------------|
    
    ----------------------19~-----|------------------------------------------|
    ----------------------19~-----|--14---15---15-15-17-15-14-12-15-14-12-14-|
    ------------------------------|------------------------------------------|
    --12-11-9-11-----9------------|------------------------------------------|
    --------------12--------------|------------------------------------------|
    ------------------------------|------------------------------------------|
    
    ------------------------------------------|
    --14---15---15-15-17-15-14-12-15-14-12-14-|
    ------------------------------------------|
    ------------------------------------------|
    ------------------------------------------|
    ------------------------------------------|
    
    ----------------------------------------|
    --14---12---12--12-12-12-12-12-12-12-12-|
    ----------------------------------------|
    ----------------------------------------|
    ----------------------------------------|
    ----------------------------------------|
    
    ----------------------------------------|
    --14---12---12--12-12-12-12-12-12-12-12-|
    ----------------------------------------|
    ----------------------------------------|
    ----------------------------------------|
    ----------------------------------------|
    
    ------------------------------------------|
    --14---15---15-15-17-15-14-12-15-14-12-14-|
    ------------------------------------------|
    ------------------------------------------|
    ------------------------------------------|
    ------------------------------------------|
    
    ------------------------------------------|
    --14---15---15-15-17-15-14-12-15-14-12-14-|
    ------------------------------------------|
    ------------------------------------------|
    ------------------------------------------|
    ------------------------------------------|
    
    ----------------------------------------|----------------------------|
    --14---12---12--12-12-12-12-12-12-12-12-|--11-12---------------------|
    ----------------------------------------|--------11-12-10/-----------|
    ----------------------------------------|----------------------------|
    ----------------------------------------|----------------------------|
    ----------------------------------------|----------------------------|
    
    --------------------------------|-------------------------------|
    --------------------------------|-------------------------------|
    --------------------------------|---------------------------7---|
    --------------------------------|---------------------------7---|
    --2-2--2-2-2-2-2-2-2--2-2-2-2-2-|--2-2--2-2-2-2-2-2-2-2-2-2-5---|
    --0-0--0-0-0-0-0-0-0--0-0-0-0-0-|--0-0--0-0-0-0-0-0-0-0-0-0-----|
    
    --------------------------------|------------------------------|
    --------------------------------|------------------------------|
    --------------------------------|--x-x-3--x-x-2--x-x-4--x-x-3--|
    --------------------------------|--x-x-5--x-x-4--x-x-6--x-x-5--|
    --2-2--2-2-2-2-2-2-2--2-2-2-2-2-|------------------------------|
    --0-0--0-0-0-0-0-0-0--0-0-0-0-0-|------------------------------|
    
    --------------------------------|-------------------------------|
    --------------------------------|-------------------------------|
    --------------------------------|---------------------------7---|
    --------------------------------|---------------------------7---|
    --2-2--2-2-2-2-2-2-2--2-2-2-2-2-|--2-2--2-2-2-2-2-2-2-2-2-2-5---|
    --0-0--0-0-0-0-0-0-0--0-0-0-0-0-|--0-0--0-0-0-0-0-0-0-0-0-0-----|
    
    --------------------------------|---------------------|
    --------------------------------|---------------------|
    --------------------------------|--5---7---7----------|
    --------------------------------|--5---7---7----------|
    --2-2--2-2-2-2-2-2-2--2-2-2-2-2-|--3---5---5----------|
    --0-0--0-0-0-0-0-0-0--0-0-0-0-0-|---------------------|
    
    ---------------------12--------|---------------------------------------|
    -------------------------12-12-|--15-15-10-10-12-12-8-8-10-10----------|
    --7/9-9-9-9--7--9--------------|------------------------------7-7-9----|
    --7/9-9-9-9--7--9--------------|---------------------------------------|
    --5/7-7-7-7--5--7--------------|---------------------------------------|
    -------------------------------|---------------------------------------|
    
    -------------------------|------------------14--15--14----|
    -------------------------|--15--17--17--15----------------|
    --7/9-9-9-9--7--9--------|--------------------------------|
    --7/9-9-9-9--7--9--------|--------------------------------|
    --5/7-7-7-7--5--7--------|--------------------------------|
    -------------------------|--------------------------------|
    
    ---------------------12--------|---------------------------------------|
    -------------------------12-12-|--15-15-10-10-12-12-8-8-10-10----------|
    --7/9-9-9-9--7--9--------------|------------------------------7-7-9----|
    --7/9-9-9-9--7--9--------------|---------------------------------------|
    --5/7-7-7-7--5--7--------------|---------------------------------------|
    -------------------------------|---------------------------------------|
    
    -------------------------|--------------------------------|
    -------------------------|--------------------------------|
    --7/9-9-9-9--7--9--------|------------------11h-12h-11----|
    --7/9-9-9-9--7--9--------|--12h-14--14--12----------------|
    --5/7-7-7-7--5--7--------|--------------------------------|
    -------------------------|--------------------------------|
    
    ------------------------|-----------------------------|------------------------|
    --8---7---8/------------|-----------------------------|--8---7---8/------------|
    --9---7---9/------------|-----------------------------|--9---7---9/------------|
    ------------------------|-----------------------------|------------------------|
    ---------------2--2--2--|--2--2--2-2-2-2-2--2-2-2--2--|---------------2--2--2--|
    ---------------0--0--0--|--0--0--0-0-0-0-0--0-0-0--0--|---------------0--0--0--|
    
    ----------------------------|------------------------|
    ------------12--------------|--8---7---8/------------|
    -----12---------12----11----|--9---7---9/------------|
    --9------9------------------|------------------------|
    ----------------------------|---------------2--2--2--|
    ----------------------------|---------------0--0--0--|
    
    -----------------------------|--13---10---12/------------|
    -----------------------------|---------------------------|
    -----------------------------|--10---7----9/-------------|
    -----------------------------|---------------------------|
    --2--2--2-2-2-2-2--2-2-2--2--|------------------2--2--2--|
    --0--0--0-0-0-0-0--0-0-0--0--|------------------0--0--0--|
    
    ----------------------------|----------------------------|
    ----------------------------|----------------------------|
    ----------------------------|----------------------------|
    ----------------------------|----------------------------|
    --2--2--2-2-2--2--2-2-2--2--|--2--2--2-2-2--2--2-2-2--2--|
    --0--0--0-0-0--0--0-0-0--0--|--0--0--0-0-0--0--0-0-0--0--|
    
    ----------------------------|--------------------------|
    ----------------------------|--------------------------|
    ----------------------------|--------------------------|
    ----------------------------|---------------------3----|
    --2--2--2-2-2--2--2-2-2--2--|--2--2--2-2-2--2-2---3----|
    --0--0--0-0-0--0--0-0-0--0--|--0--0--0-0-0--0-0---1----|
    
    --------14--17--16--14------14--|--------14--17--16----------14--|
    ----14------------------17------|----14--------------17--14------|
    --------------------------------|--------------------------------|
    --------------------------------|--------------------------------|
    --------------------------------|--------------------------------|
    --------------------------------|--------------------------------|
    
    ------------------------------|--------------------------------|
    --14---17---14----------------|-----14-17-15-14----------------|
    ----------------16---14---13--|--14-------------16-14----------|
    ------------------------------|--------------------------------|
    ------------------------------|--------------------------------|
    ------------------------------|--------------------------------|
    
    --------14--17--16--14------14--|--------14--17--16----------14--|
    ----14------------------17------|----14--------------17--14------|
    --------------------------------|--------------------------------|
    --------------------------------|--------------------------------|
    --------------------------------|--------------------------------|
    --------------------------------|--------------------------------|
    
    ------------------------------|--------------------------------------------|
    --14---17---14----------------|-----14-17-15-14----14-------14-17-15-14----|
    ----------------16---14---13--|--14-------------16-------14-------------16-|
    ------------------------------|--------------------------------------------|
    ------------------------------|--------------------------------------------|
    ------------------------------|--------------------------------------------|
    
    --------------------------------------------|
    -----14-17-15-14----14-------14-17-15-14----|
    --14-------------16-------14-------------16-|
    --------------------------------------------|
    --------------------------------------------|
    --------------------------------------------|
    
    -----17-21-19-17----17-------17-21-19-17----|--21-19-17------------------|
    --19-------------21-------19-------------21-|-----------21-19------------|
    --------------------------------------------|----------------------------|
    --------------------------------------------|----------------------------|
    --------------------------------------------|----------------------------|
    --------------------------------------------|----------------------------|
    
    --------------11--------------11--|--------------11------------------------|
    --11------11------12------12------|--11------11-------------------11-12-14-|
    ----------------------------------|------------------13--10-11-13----------|
    ------13--------------13----------|------13--------------------------------|
    ----------------------------------|----------------------------------------|
    ----------------------------------|----------------------------------------|
    
    --------------11--------------11--|---------------------------13-14-16-18--19--|
    --11------11------12------12------|--11-----------11-12-14-16------------------|
    ----------------------------------|------10-11-13------------------------------|
    ------13--------------13----------|--------------------------------------------|
    ----------------------------------|--------------------------------------------|
    ----------------------------------|--------------------------------------------|
    
    --------------11--------------11--|--------------11------------------------|
    --11------11------12------12------|--11------11-------------------11-12-14-|
    ----------------------------------|------------------13--10-11-13----------|
    ------13--------------13----------|------13--------------------------------|
    ----------------------------------|----------------------------------------|
    ----------------------------------|----------------------------------------|
    
    --------------11--------------11--|
    --11------11------12------12------|
    ----------------------------------|
    ------13--------------13----------|
    ----------------------------------|
    ----------------------------------|
    
    --11h14h11----------------------------------------------|
    -----------11h14h11----11-------------------------------|
    --------------------11----10----11----------------------|
    -----------------------------13----11-------------------|
    --------------------------------------13-16-11-13-------|
    --------------------------------------------------13-14-|
    
    ------------------------------------------|
    --14---15---15-15-17-15-14-12-15-14-12-14-|
    ------------------------------------------|
    ------------------------------------------|
    ------------------------------------------|
    ------------------------------------------|
    
    ------------------------------------------|
    --14---15---15-15-17-15-14-12-15-14-12-14-|
    ------------------------------------------|
    ------------------------------------------|
    ------------------------------------------|
    ------------------------------------------|
    
    ----------------------------------------|----------------------------19~---|
    --14---12---12--12-12-12-12-12-12-12-12-|--14---12---12--12-12-12-12-19~---|
    ----------------------------------------|----------------------------------|
    ----------------------------------------|----------------------------------|
    ----------------------------------------|----------------------------------|
    ----------------------------------------|----------------------------------|
    
    ------------------------------------------|
    --14---15---15-15-17-15-14-12-15-14-12-14-|
    ------------------------------------------|
    ------------------------------------------|
    ------------------------------------------|
    ------------------------------------------|
    
    ------------------------------------------|
    --14---15---15-15-17-15-14-12-15-14-12-14-|
    ------------------------------------------|
    ------------------------------------------|
    ------------------------------------------|
    ------------------------------------------|
    
    ----------------------------------------|
    --14---12---12--12-12-12-12-12-12-12-12-|
    ----------------------------------------|
    ----------------------------------------|
    ----------------------------------------|
    ----------------------------------------|
    
    ----------------------------------------|--------------------------------|
    --14---12---12--12-12-12-12-12-12-12-12-|--------------------------------|
    ----------------------------------------|--------------------------------|
    ----------------------------------------|--8-8--8-8-8-8-8-8-8--8-8-8-8-8-|
    ----------------------------------------|--6-6--6-6-6-6-6-6-6--6-6-6-6-6-|
    ----------------------------------------|--------------------------------|
    
    -------------------------------|--------------------------------|
    -------------------------------|--------------------------------|
    -------------------------------|--------------------------------|
    --8-8--8-8-8-8-8-8-8-8-8-8-9---|--8-8--8-8-8-8-8-8-8--8-8-8-8-8-|
    --6-6--6-6-6-6-6-6-6-6-6-6-9---|--6-6--6-6-6-6-6-6-6--6-6-6-6-6-|
    ---------------------------7---|--------------------------------|
    
    -------------------------------|--------------------------------|
    -------------------------------|--------------------------------|
    ---------------------------6---|--------------------------------|
    --8-8--8-8-8-8-8-8-8-8-8-8-6---|--8-8--8-8-8-8-8-8-8--8-8-8-8-8-|
    --6-6--6-6-6-6-6-6-6-6-6-6-4---|--6-6--6-6-6-6-6-6-6--6-6-6-6-6-|
    -------------------------------|--------------------------------|
    
    -------------------------------|--------------------------------|
    -------------------------------|--------------------------------|
    -------------------------------|--------------------------------|
    --8-8--8-8-8-8-8-8-8-8-8-8-9---|--8-8--8-8-8-8-8-8-8--8-8-8-8-8-|
    --6-6--6-6-6-6-6-6-6-6-6-6-9---|--6-6--6-6-6-6-6-6-6--6-6-6-6-6-|
    ---------------------------7---|--------------------------------|
    
    ------------------------------|---------------------12--------|
    ------------------------------|-------------------------12-12-|
    --x-x-3--x-x-2--x-x-4--x-x-3--|--7/9-9-9-9--7--9--------------|
    --x-x-5--x-x-4--x-x-6--x-x-5--|--7/9-9-9-9--7--9--------------|
    ------------------------------|--5/7-7-7-7--5--7--------------|
    ------------------------------|-------------------------------|
    
    ---------------------------------------|-------------------------|
    --15-15-10-10-12-12-8-8-10-10----------|-------------------------|
    ------------------------------7-7-9----|--7/9-9-9-9--7--9--------|
    ---------------------------------------|--7/9-9-9-9--7--9--------|
    ---------------------------------------|--5/7-7-7-7--5--7--------|
    ---------------------------------------|-------------------------|
    
    ------------------14--15--14----|---------------------12--------|
    --15--17--17--15----------------|-------------------------12-12-|
    --------------------------------|--7/9-9-9-9--7--9--------------|
    --------------------------------|--7/9-9-9-9--7--9--------------|
    --------------------------------|--5/7-7-7-7--5--7--------------|
    --------------------------------|-------------------------------|
    
    ---------------------------------------|-------------------------|
    --15-15-10-10-12-12-8-8-10-10----------|-------------------------|
    ------------------------------7-7-9----|--7/9-9-9-9--7--9--------|
    ---------------------------------------|--7/9-9-9-9--7--9--------|
    ---------------------------------------|--5/7-7-7-7--5--7--------|
    ---------------------------------------|-------------------------|
    
    --------------------------------|------------------------|
    --------------------------------|--8---7---8/------------|
    ------------------11h-12h-11----|--9---7---9/------------|
    --12h-14--14--12----------------|------------------------|
    --------------------------------|---------------2--2--2--|
    --------------------------------|---------------0--0--0--|
    
    -----------------------------|------------------------|
    -----------------------------|--8---7---8/------------|
    -----------------------------|--9---7---9/------------|
    -----------------------------|------------------------|
    --2--2--2-2-2-2-2--2-2-2--2--|---------------2--2--2--|
    --0--0--0-0-0-0-0--0-0-0--0--|---------------0--0--0--|
    
    ----------------------------|------------------------|
    ------------12--------------|--8---7---8/------------|
    -----12---------12----11----|--9---7---9/------------|
    --9------9------------------|------------------------|
    ----------------------------|---------------2--2--2--|
    ----------------------------|---------------0--0--0--|
    
    -----------------------------|--13---10---12/------------|
    -----------------------------|---------------------------|
    -----------------------------|--10---7----9/-------------|
    -----------------------------|---------------------------|
    --2--2--2-2-2-2-2--2-2-2--2--|------------------2--2--2--|
    --0--0--0-0-0-0-0--0-0-0--0--|------------------0--0--0--|
    
    --------------------------|--------14--17--16--14------14--|
    --------------------------|----14------------------17------|
    --------------------------|--------------------------------|
    ---------------------3----|--------------------------------|
    --2--2--2-2-2--2-2---3----|--------------------------------|
    --0--0--0-0-0--0-0---1----|--------------------------------|
    
    --------14--17--16----------14--|------------------------------|
    ----14--------------17--14------|--14---17---14----------------|
    --------------------------------|----------------16---14---13--|
    --------------------------------|------------------------------|
    --------------------------------|------------------------------|
    --------------------------------|------------------------------|
    
    --------------------------------|--------14--17--16--14------14--|
    -----14-17-15-14----------------|----14------------------17------|
    --14-------------16-14----------|--------------------------------|
    --------------------------------|--------------------------------|
    --------------------------------|--------------------------------|
    --------------------------------|--------------------------------|
    
    --------14--17--16----------14--|------------------------------|
    ----14--------------17--14------|--14---17---14----------------|
    --------------------------------|----------------16---14---13--|
    --------------------------------|------------------------------|
    --------------------------------|------------------------------|
    --------------------------------|------------------------------|
    
    --------------------------------------------|
    -----14-17-15-14----14-------14-17-15-14----|
    --14-------------16-------14-------------16-|
    --------------------------------------------|
    --------------------------------------------|
    --------------------------------------------|
    
    --------------------------------------------|
    -----14-17-15-14----14-------14-17-15-14----|
    --14-------------16-------14-------------16-|
    --------------------------------------------|
    --------------------------------------------|
    --------------------------------------------|
    
    -----17-21-19-17----17-------17-21-19-17----|------------------------|
    --19-------------21-------19-------------21-|------------------------|
    --------------------------------------------|------------------7---6-|
    --------------------------------------------|--4---2---4---7---7---6-|
    --------------------------------------------|--2---0---2---5---5---4-|
    --------------------------------------------|--2---0---2---5---5---4-|
    
    ---0-7-7-0-5-7-7-0-0-7-7-0-5-7-7-|---0-0-7-8-0-5-7---5---------------|
    ---------------------------------|-----------------8---7-8-5-7-4-5---|
    ---------------------------------|---------------------------------5-|
    ---------------------------------|-----------------------------------|
    ---------------------------------|-----------------------------------|
    ---------------------------------|-----------------------------------|
    
    -----0-7-7-0-5-7-7-0-0-7-7-0-5-7-7-|---0-0-7-8-0-5-7---5---------------|
    ---4-------------------------------|-----------------8---7-8-5-7-4-5---|
    -----------------------------------|---------------------------------5-|
    -----------------------------------|-----------------------------------|
    -----------------------------------|-----------------------------------|
    -----------------------------------|-----------------------------------|
    
    -----0-7-7-0-5-7-7-0-0-7-7-0-5-7-7-|---0-0-7-8-0-5-7---5---------------|
    ---4-------------------------------|-----------------8---7-8-5-7-4-5---|
    -----------------------------------|---------------------------------5-|
    -----------------------------------|-----------------------------------|
    -----------------------------------|-----------------------------------|
    -----------------------------------|-----------------------------------|
    
    -----0-7-7-0-5-7-7-0-0-7-7-0-5-7-7-|---0-0-7-8-0-5-7---5---------------|
    ---4-------------------------------|-----------------8---7-8-5-7-4-5---|
    -----------------------------------|---------------------------------5-|
    -----------------------------------|-----------------------------------|
    -----------------------------------|-----------------------------------|
    -----------------------------------|-----------------------------------|
    
    -------10-10---8-10-10-----10-10---8-10-10-|
    -----8-------8---------8-8-------8---------|
    ---4---------------------------------------|
    -------------------------------------------|
    -------------------------------------------|
    -------------------------------------------|
    
    -------10-11---8-10----8------------------|
    ---8-8-------8------11---10-11-8-10-7-8---|
    ----------------------------------------7-|
    ------------------------------------------|
    ------------------------------------------|
    ------------------------------------------|
    
    -------10-10---8-10-10-----10-10---8-10-10-|
    -----8-------8---------8-8-------8---------|
    ---8---------------------------------------|
    -------------------------------------------|
    -------------------------------------------|
    -------------------------------------------|
    
    -------10-11---8-10----8------------------|
    ---8-8-------8------11---10-11-8-10-7-8---|
    ----------------------------------------7-|
    ------------------------------------------|
    ------------------------------------------|
    ------------------------------------------|
    
    --------19-19----17-19-19-------19-19----17-…
  • Tuning: D G C F A D
    
                                               Play this 2 times
    |--------------------||-----------------||-------------|
    |--------------------||-----------------||-------------|
    |--------------------||-----------------||-2-----------|
    |-2---2--------2---2-||-2-2-2-2-2-2-----||-2--2---2--2-|
    |-2---2--------2---2-||-2-2-2-2-2-2-----||-0--2---2--2-|
    |-0---0--------0---0-||-0-0-0-0-0-0-----||----0---0--0-|
    
    Riff…
  • D tuning (D,G,C,F,A,D)
    
    
    Intro:
    
    guitar 1:
    			  N.H     N.H			 N.H	   N.H
    |-------------------12---------------------------------------/|
    |-3------3-/-5--------------------3------3-/-5--------------/-|
    |-2------2-/-4--------------24----2------2-/-4---12-11---15/--|
    |------------------------------------------------------whammy-|
    |--------------------------------------------------------bar--|
    |-------------------------------------------------------------|
    
    guitar…
  • D#||------------------|------------------|------------------|
    A#||------------------|------------------|------------------|
    F#||------------------|------------------|------------------|
    C#||------------------|------------------|------------------|
    G#||------------------|------------------|------------------|
    D#||------------------|------------------|------------------|
    
    -----------------------|-------------------------------|
    -----------------------|-------------------------------|
    ----------9---8--------|--9--9--9--9--9----12--12--12--|
    --8--8-7---------------|--9--9--9--9--9----12--12--12--|
    -----------------------|--7--7--7--7--7----10--10--10--|
    -----------------------|-------------------------------|
    
    ---------------------------|-------------------------------|
    ---------------------------|-------------------------------|
    --9--9--9--9--9----5----7--|--9--9--9--9--9----12--12--12--|
    --9--9--9--9--9----5----7--|--9--9--9--9--9----12--12--12--|
    --7--7--7--7--7----3----5--|--7--7--7--7--7----10--10--10--|
    ---------------------------|-------------------------------|
    
    -----------------------|-------------------------------|
    -----------------------|-------------------------------|
    ----------9---8--------|--9--9--9--9--9----12--12--12--|
    --8--8-7---------------|--9--9--9--9--9----12--12--12--|
    -----------------------|--7--7--7--7--7----10--10--10--|
    -----------------------|-------------------------------|
    
    ---------------------------|-------------------------------|
    ---------------------------|-------------------------------|
    --9--9--9--9--9----5----7--|--9--9--9--9--9----12--12--12--|
    --9--9--9--9--9----5----7--|--9--9--9--9--9----12--12--12--|
    --7--7--7--7--7----3----5--|--7--7--7--7--7----10--10--10--|
    ---------------------------|-------------------------------|
    
    -----------------------|---------------------------------|-------------------|
    -----------------------|---------------------------------|-------------------|
    ----------9---8--------|---------------------------------|-------------------|
    --8--8-7---------------|--------5--7---10-9-8-7----------|-------------------|
    -----------------------|--5-7-8-----------------10-9-8-7-|--6----------------|
    -----------------------|---------------------------------|-------------------|
    
    |----------------------------------------|--------------------------------|
    |----------------------------------------|--------------------------------|
    |*---------------------------------------|--------------------------------|
    |*--7--7-7-7-7-7-7-10--10-10-10-10-10-10-|--9--9-9-9-9-9-9-9--9-9-9-9-9-9-|
    |----------------------------------------|--------------------------------|
    |----------------------------------------|--------------------------------|
    
    --------------------------------|-----------------------------||
    --------------------------------|-----------------------------||
    --------------------------------|----------------------------*||
    --7--7-7-7-7-7-7----------------|----------------------------*||
    -----------------7--7-7-7-7-7-7-|-----------------------------||
    --------------------------------|--7--7-7-7-7-7-7-8----10-----||
    
    ---------------------------------|
    ---------------------------------|
    *--------------------------------|
    *--7--7-7-7-7-7-7-7--7-7-7-7-7-7-|
    ---------------------------------|
    ---------------------------------|
    
    ----------------------------------------------|--------------------------------|
    ----------------------------------------------|--------------------------------|
    ----------------------------------------------|--------------------------------|
    --10--10-10-10-10-10-10-10--10-10-10-10-10-10-|--9--9-9-9-9-9-9-9--9-9-9-9-9-9-|
    ----------------------------------------------|--------------------------------|
    ----------------------------------------------|--------------------------------|
    
    --------------------------------|--------------------------------|
    --------------------------------|--------------------------------|
    --------------------------------|--------------------------------|
    --9--9-9-9-9-9-9-9--9-9-9-9-9-9-|--7--7-7-7-7-7-7-7--7-7-7-7-7-7-|
    --------------------------------|--------------------------------|
    --------------------------------|--------------------------------|
    
    --------------------------------|--------------------------------|
    --------------------------------|--------------------------------|
    --------------------------------|--------------------------------|
    --------------------------------|--------------------------------|
    --7--7-7-7-7-7-7-7--7-7-7-7-7-7-|--------------------------------|
    --------------------------------|--7--7-7-7-7-7-7-7--7-7-7-7-7-7-|
    
    -----------------------------------||-------------------|---------------------|
    -----------------------------------||-------------------|---------------------|
    ----------------------------------*||--9----------------|------7----5----7----|
    ----------------------------------*||--9----------------|------9----5----7----|
    -----------------------------------||--7----------------|------9----3----5----|
    --7--7-7-7-7-7-7-8--8-8-10--10-10--||--0----------------|------7--------------|
    
    -------------------|---------------------|-------------------|
    -------------------|---------------------|-------------------|
    --9----------------|-----------7---------|--9----------------|
    --9----------------|------7----7----9----|--9----------------|
    --7----------------|------7----5----9----|--7----------------|
    --0----------------|------5---------7----|--0----------------|
    
    ---------------------|--------------------|------------------|
    ---------------------|--------------------|------------------|
    ------7----5----7----|--9--------9--------|------------------|
    ------9----5----7----|--9--------9--------|------------------|
    ------9----3----5----|--7--------7--------|------------------|
    ------7--------------|--0--------0--------|------------------|
    
    ----------------------------------|----------------------------------|
    ----------------------------------|----------------------------------|
    ----------------------------------|----------------------------------|
    ----------------------------------|----------5-5-----5-5-7-7-9-9-9-9-|
    --7-7-7-7-7-7-7-7-7-7-7-7-7-7-7-7-|--7-7-----------------------------|
    ----------------------------------|------8-8-----8-8-----------------|
    
    ----------------------------------|----------------------------------|
    ----------------------------------|----------------------------------|
    ----------------------------------|----------------------------------|
    ----------------------------------|----------5-5-----5-5-7-7-9-9-9-9-|
    --7-7-7-7-7-7-7-7-7-7-7-7-7-7-7-7-|--7-7-----------------------------|
    ----------------------------------|------8-8-----8-8-----------------|
    
    ----------------------------------|----------------------------------|
    ----------------------------------|----------------------------------|
    ----------------------------------|----------------------------------|
    ----------------------------------|----------5-5-----5-5-7-7-9-9-9-9-|
    --7-7-7-7-7-7-7-7-7-7-7-7-7-7-7-7-|--7-7-----------------------------|
    ----------------------------------|------8-8-----8-8-----------------|
    
    ----------------------------------|----------------------------------|
    ----------------------------------|----------------------------------|
    ----------------------------------|----------------------------------|
    ----------------------------------|----------5-5-----5-5-7-7-9-9-9-9-|
    --7-7-7-7-7-7-7-7-7-7-7-7-7-7-7-7-|--7-7-----------------------------|
    ----------------------------------|------8-8-----8-8-----------------|
    
    -----------------------------------|----------------------|
    -----------------------------------|----------------------|
    -------8-------7-------5-------3---|----8----7----5--7----|
    -----8---8---7---7---5---5---3---3-|----8----7----5--7----|
    --10-------8-------6-------5-------|----6----5----3--5----|
    -----------------------------------|----------------------|
    
    -----------------------------------|----------------------|
    -----------------------------------|----------------------|
    -------8-------7-------5-------3---|----8----7----5--7----|
    -----8---8---7---7---5---5---3---3-|----8----7----5--7----|
    --10-------8-------6-------5-------|----6----5----3--5----|
    -----------------------------------|----------------------|
    
    --------------------------------------------------|
    --------------------------------------------------|
    --12-12-12-12-14-14-14-14-12-12-12-12-11-11-11-11-|
    --12-12-12-12-14-14-14-14-12-12-12-12-11-11-11-11-|
    --10-10-10-10-12-12-12-12-10-10-10-10-9--9--9--9--|
    --------------------------------------------------|
    
    --------------------------------------|----------------------------------|
    --------------------------------------|----------------------------------|
    --9-9-9-9-11-11-11-11-9-9-9-9-7-7-7-7-|--5-5-5-5-7-7-7-7-5-5-5-5-4-4-4-4-|
    --9-9-9-9-11-11-11-11-9-9-9-9-7-7-7-7-|--5-5-5-5-7-7-7-7-5-5-5-5-4-4-4-4-|
    --7-7-7-7-9--9--9--9--7-7-7-7-5-5-5-5-|--3-3-3-3-5-5-5-5-3-3-3-3-2-2-2-2-|
    --------------------------------------|----------------------------------|
    
    --7-7-7-7-7-7-7-7-8-8-8-8-10-10-10-10-|
    --7-7-7-7-7-7-7-7-8-8-8-8-10-10-10-10-|
    --------------------------------------|
    --------------------------------------|
    --------------------------------------|
    --------------------------------------|
    
    --------------------------------------------------|
    --------------------------------------------------|
    --12-12-12-12-14-14-14-14-12-12-12-12-11-11-11-11-|
    --12-12-12-12-14-14-14-14-12-12-12-12-11-11-11-11-|
    --10-10-10-10-12-12-12-12-10-10-10-10-9--9--9--9--|
    --------------------------------------------------|
    
    --------------------------------------|----------------------------------|
    --------------------------------------|----------------------------------|
    --9-9-9-9-11-11-11-11-9-9-9-9-7-7-7-7-|--9-9-9-9-7-7-7-7-5-5-5-5-4-4-4-4-|
    --9-9-9-9-11-11-11-11-9-9-9-9-7-7-7-7-|--9-9-9-9-7-7-7-7-5-5-5-5-4-4-4-4-|
    --7-7-7-7-9--9--9--9--7-7-7-7-5-5-5-5-|--7-7-7-7-5-5-5-5-3-3-3-3-2-2-2-2-|
    --------------------------------------|----------------------------------|
    
    --7-7-7-7-7-7-7-7-8-8-8-8-10-10-10-10-|
    --7-7-7-7-7-7-7-7-8-8-8-8-10-10-10-10-|
    --------------------------------------|
    --------------------------------------|
    --------------------------------------|
    --------------------------------------|
    
    ------------------------------------------|----------------------------------|
    --8-8-8-8-8-8-8-8-10-10-10-10-10-10-10-10-|--8-8-8-8-8-8-8-8-7-7-7-7-7-7-7-7-|
    ------------------------------------------|----------------------------------|
    ------------------------------------------|----------------------------------|
    ------------------------------------------|----------------------------------|
    ------------------------------------------|----------------------------------|
    
    ------------------------------------------|----------------------------------|
    --8-8-8-8-8-8-8-8-10-10-10-10-10-10-10-10-|--8-8-8-8-8-8-8-8-7-7-7-7-7-7-7-7-|
    ------------------------------------------|----------------------------------|
    ------------------------------------------|----------------------------------|
    ------------------------------------------|----------------------------------|
    ------------------------------------------|----------------------------------|
    
    ----------------------------------|----------------------------------|
    --8-8-8-8-8-8-8-8-7-7-7-7-7-7-7-7-|--5-5-5-5-5-5-5-5-4-4-4-4-4-4-4-4-|
    ----------------------------------|----------------------------------|
    ----------------------------------|----------------------------------|
    ----------------------------------|----------------------------------|
    ----------------------------------|----------------------------------|
    
    ----------------------------------|----------------------------------|
    --7-7-7-7-7-7-7-7-7-7-7-7-7-7-7-7-|--7-7-7-7-7-7-7-7-7-7-7-7-7-7-7-7-|
    ----------------------------------|----------------------------------|
    ----------------------------------|----------------------------------|
    ----------------------------------|----------------------------------|
    ----------------------------------|----------------------------------|
    
    ------------------------------------------|----------------------------------|
    --8-8-8-8-8-8-8-8-10-10-10-10-10-10-10-10-|--8-8-8-8-8-8-8-8-7-7-7-7-7-7-7-7-|
    ------------------------------------------|----------------------------------|
    ------------------------------------------|----------------------------------|
    ------------------------------------------|----------------------------------|
    ------------------------------------------|----------------------------------|
    
    ------------------------------------------|----------------------------------|
    --8-8-8-8-8-8-8-8-10-10-10-10-10-10-10-10-|--8-8-8-8-8-8-8-8-7-7-7-7-7-7-7-7-|
    ------------------------------------------|----------------------------------|
    ------------------------------------------|----------------------------------|
    ------------------------------------------|----------------------------------|
    ------------------------------------------|----------------------------------|
    
    ----------------------------------|----------------------------------|
    --8-8-8-8-8-8-8-8-7-7-7-7-7-7-7-7-|--5-5-5-5-5-5-5-5-4-4-4-4-4-4-4-4-|
    ----------------------------------|----------------------------------|
    ----------------------------------|----------------------------------|
    ----------------------------------|----------------------------------|
    ----------------------------------|----------------------------------|
    
    ----------------------------------|----------------------------------|
    --7-7-7-7-7-7-7-7-7-7-7-7-7-7-7-7-|--7-7-7-7-7-7-7-7-7-7-7-7-7-7-7-7-|
    ----------------------------------|----------------------------------|
    ----------------------------------|----------------------------------|
    ----------------------------------|----------------------------------|
    ----------------------------------|----------------------------------|
    
    -------------------------------|---------------------------|
    -------------------------------|---------------------------|
    --9--9--9--9--9----12--12--12--|--9--9--9--9--9----5----7--|
    --9--9--9--9--9----12--12--12--|--9--9--9--9--9----5----7--|
    --7--7--7--7--7----10--10--10--|--7--7--7--7--7----3----5--|
    -------------------------------|---------------------------|
    
    -------------------------------|-----------------------|
    -------------------------------|-----------------------|
    --9--9--9--9--9----12--12--12--|----------9---8--------|
    --9--9--9--9--9----12--12--12--|--8--8-7---------------|
    --7--7--7--7--7----10--10--10--|-----------------------|
    -------------------------------|-----------------------|
    
    --------------------------------------------------|
    --------------------------------------------------|
    --------------------------------------------14-16-|
    -----------------------------------14-16-17-------|
    --------------------------14-16-17----------------|
    --12-14-15-17-12-14-15-17-------------------------|
    
    -----------15-17----------17-19-22r-----|
    --15-17-19-------17-19-20---------------|
    ----------------------------------------|
    ----------------------------------------|
    ----------------------------------------|
    ----------------------------------------|
    
    --19--22-21-19-17--21-19-17-15--19-17-15-14----|
    -----------------------------------------------|
    -----------------------------------------------|
    -----------------------------------------------|
    -----------------------------------------------|
    -----------------------------------------------|
    
    --14-16-20-17---16-19-16-19-20-19-17----------|
    -------------------------------------20-19-17-|
    ----------------------------------------------|
    ----------------------------------------------|
    ----------------------------------------------|
    ----------------------------------------------|
    
    ------------------------------------||---------------------------------|
    ------------------------------------||---------------------------------|
    --19-18-17--------------------------||*--------------------------------|
    -----------19-18-16-----------------||*--7--7-7-7-7-7-7-7--7-7-7-7-7-7-|
    --------------------20-19-17--------||---------------------------------|
    ------------------------------------||---------------------------------|
    
    ----------------------------------------------|--------------------------------|
    ----------------------------------------------|--------------------------------|
    ----------------------------------------------|--------------------------------|
    --10--10-10-10-10-10-10-10--10-10-10-10-10-10-|--9--9-9-9-9-9-9-9--9-9-9-9-9-9-|
    ----------------------------------------------|--------------------------------|
    ----------------------------------------------|--------------------------------|
    
    --------------------------------|--------------------------------|
    --------------------------------|--------------------------------|
    --------------------------------|--------------------------------|
    --9--9-9-9-9-9-9-9--9-9-9-9-9-9-|--7--7-7-7-7-7-7-7--7-7-7-7-7-7-|
    --------------------------------|--------------------------------|
    --------------------------------|--------------------------------|
    
    --------------------------------|--------------------------------|
    --------------------------------|--------------------------------|
    --------------------------------|--------------------------------|
    --------------------------------|--------------------------------|
    --7--7-7-7-7-7-7-7--7-7-7-7-7-7-|--------------------------------|
    --------------------------------|--7--7-7-7-7-7-7-7--7-7-7-7-7-7-|
    
    -----------------------------------||--------------------------------|
    -----------------------------------||--------------------------------|
    ----------------------------------*||--------------------------------|
    ----------------------------------*||--------------------------------|
    -----------------------------------||--------------------------------|
    --7--7-7-7-7-7-7-8--8-8-10--10-10--||--0-2-2-2-2--2-2-2--2-2-2-2-2-2-|
    
    -----------------------------|--------------------------------|
    -----------------------------|--------------------------------|
    -----------------------------|--------------------------------|
    ------------------------5----|--------------------------------|
    ------------------------3----|--------------------------------|
    --0-2-2-2-2--2-2-2--2-2------|--0-2-2-2-2--2-2-2--2-2-2-2-2-2-|
    
    -----------------------------|--------------------------------|
    -----------------------------|--------------------------------|
    -----------------------------|--------------------------------|
    ------------------------7----|--------------------------------|
    ------------------------5----|--------------------------------|
    --0-2-2-2-2--2-2-2--2-2------|--0-2-2-2-2--2-2-2--2-2-2-2-2-2-|
    
    -----------------------------|--------------------------------|
    -----------------------------|--------------------------------|
    -----------------------------|--------------------------------|
    ------------------------5----|--------------------------------|
    ------------------------3----|--------------------------------|
    --0-2-2-2-2--2-2-2--2-2------|--0-2-2-2-2--2-2-2--2-2-2-2-2-2-|
    
    -----------------------------|---------------------------|------------------|
    -----------------------------|---------------------------|------------------|
    -----------------------------|---------------------------|------------------|
    ------------------------9----|------------5--5--------4--|------------------|
    ------------------------7----|------------3--3--------2--|------------------|
    --0-2-2-2-2--2-2-2--2-2------|--0--2-2-2--------0--0-----|------------------|
    
    -------------------------|-------------------------|-------------------------|
    -------------------------|-------------------------|-------------------------|
    -------------------------|-------------------------|-------------------------|
    ---------------4------4--|---------------5------5--|---------------4------4--|
    ---------------2------2--|---------------3------3--|---------------2------2--|
    --0------0--0------------|--0------0--0------------|--0------0--0------------|
    
    ---------------------|-------------------------|-------------------------|
    ---------------------|-------------------------|-------------------------|
    ---------------------|-------------------------|-------------------------|
    --5------4--2--------|---------------4------4--|---------------5------5--|
    --3------2--2--------|---------------2------2--|---------------3------3--|
    ------------0--------|--0------0--0------------|--0------0--0------------|
    
    -------------------------|---------------------|
    -------------------------|---------------------|
    -------------------------|---------------------|
    ---------------4------4--|--5------4--2--------|
    ---------------2------2--|--3------2--2--------|
    --0------0--0------------|------------0--------|
    
    -------------------------------------------------|
    ---------------------10--12--10--------------10--|
    --9--11--12--11--12--------------12--11--12------|
    -------------------------------------------------|
    -------------------------------------------------|
    -------------------------------------------------|
    
    -----------------------------------------------|
    ---------------------10--12--10----------------|
    --9--11--12--11--12--------------12--11--9--8--|
    -----------------------------------------------|
    -----------------------------------------------|
    -----------------------------------------------|
    
    -------------------------------------------------|
    ---------------------10--12--10--------------10--|
    --9--11--12--11--12--------------12--11--12------|
    -------------------------------------------------|
    -------------------------------------------------|
    -------------------------------------------------|
    
    ---------------------------------|
    --12--10-------------------------|
    ----------12--11--9--8--9--------|
    ---------------------------------|
    ---------------------------------|
    ---------------------------------|
    
    -------------------------------------------------|
    ---------------------10--12--10--------------10--|
    --9--11--12--11--12--------------12--11--12------|
    -------------------------------------------------|
    -------------------------------------------------|
    -------------------------------------------------|
    
    -----------------------------------------------|
    ---------------------10--12--10----------------|
    --9--11--12--11--12--------------12--11--9--8--|
    -----------------------------------------------|
    -----------------------------------------------|
    -----------------------------------------------|
    
    ----------------------17--19--17--------------17--|
    --17--19--20--19--20--------------20--19--20------|
    --------------------------------------------------|
    --------------------------------------------------|
    --------------------------------------------------|
    --------------------------------------------------|
    
    --24--22--20------------------------|-----------------------------------|
    --------------24--22--19--17--------|-----------------10----------------|
    ------------------------------------|--9------11--12--------12----11----|
    ------------------------------------|-----------------------------------|
    ------------------------------------|-----------------------------------|
    ------------------------------------|-----------------------------------|
    
    --------------------------------------|-------------------------------------|
    --------10----12----13----12----10----|--------10----12----10---------------|
    --12----------------------------------|--12----------------------11----8----|
    --------------------------------------|-------------------------------------|
    --------------------------------------|-------------------------------------|
    --------------------------------------|-------------------------------------|
    
    ----------------------------|-----------------------------------|…
  • Tune down 1 1/2 step
    144 bpm
    
    4/4 time
    
    
            A5   notes in parenthisis 3rd and 4th time only
    |----------|-----------------------------12-17----------------|
    |----------|-----10-12-13-10----10-12-13----------------------|
    |----------|*-------------------------------------------------|
    |----------|*-14----------------------------------------14----|
    |----------|--------------------------------------------------|
    |----------|--------------------------------------------------|
    |
    |----------|--------------------------------------------------|
    |----------|--------------------------------------------------|
    |-------2--|*-2------------------------------------------2----|
    |-------2--|*-2------------------------------------------2----|
    |-------0--|--0----(0-----0-----0-----0--0--0-----0)-----0----|
    |----------|--------------------------------------------------|…
  • Gtr I (D A D G B E) - 'Guitar 1'
    Gtr II (D A D G B E) - 'Guitar 2'
    Gtr III (E A D G B E) - 'Keyboard (Orchestra hit)'
    Gtr IV (E A D G B E) - 'Keyboard (I don't know)'
    Gtr V (E A D G B E) - 'Keyboard (solo)'
    
    
      Q=199
     4/4…
  • D||------|------|-------------------|-------------------|
    A||------|------|-------------------|-------------------|
    F||------|------|-------------------|-------------------|
    C||------|------|----------9/-------|-------------------|
    G||------|------|-------------------|--9/---------------|
    D||------|------|-------------------|-------------------|
    
    ---------------------------|-------------------|----------------------------|
    ---------------------------|-------------------|---------------------10-----|
    ------------------------8--|------8------------|-------------------------6--|
    -----7--8--10--8--7--6-----|-------------------|-----7--8--10--8--7---------|
    --0------------------------|-------------------|--0-------------------------|
    ---------------------------|-------------------|----------------------------|
    
    -------------------|---------------------------|------------------|
    -------------------|---------------------------|------------------|
    ------6------------|------------------------8~-|------------------|
    -------------------|-----7--8--10--8--7--6-----|------------------|
    -------------------|--0------------------------|------------------|
    -------------------|---------------------------|------------------|
    
    ---------------------------|---------------------|---------------------------|
    ---------------------------|---------------------|---------------------------|
    ---------------------------|---------------------|------------------------8--|
    -----7--9--10--9--7--6--6~-|--------------6/-18/-|-----7--9--10--9--7--6-----|
    --0------------------------|---------------------|--0------------------------|
    ---------------------------|---------------------|---------------------------|
    
    -------------------|----------------------------|-------------------|
    -------------------|---------------------10-----|-------------------|
    ------8------------|-------------------------6--|------6------------|
    -------------------|-----7--9--10--9--7---------|-------------------|
    -------------------|--0-------------------------|-------------------|
    -------------------|----------------------------|-------------------|
    
    ---------------------------|------------------|---------------------------|
    ---------------------------|------------------|---------------------------|
    ---------------------------|------------------|---------------------------|
    -----7--9--10--9--7--6--5~-|------------------|-----7--9--10--9--7--6--6~-|
    --0------------------------|------------------|--0------------------------|
    ---------------------------|------------------|---------------------------|
    
    ------------------|---------------------------|------------------------|
    ------------------|---------------------------|------------------------|
    ------------------|------------------------8--|------8--8--8--8--8--8--|
    ------------------|-----7--8--10--8--7--6-----|------------------------|
    ------------------|--0------------------------|------------------------|
    ------------------|---------------------------|------------------------|
    
    ----------------------------|-------------------|---------------------------|
    ---------------------10-----|-------------------|---------------------------|
    -------------------------6--|------6------------|------------------------8~-|
    -----7--8--10--8--7---------|-------------------|-----7--8--10--8--7--6-----|
    --0-------------------------|-------------------|--0------------------------|
    ----------------------------|-------------------|---------------------------|
    
    ------------------|---------------------------|------|------|------|------|
    ------------------|---------------------------|------|------|------|------|
    ------------------|---------------------------|------|------|------|------|
    ------------------|-----7--9--10--9--7--6--6--|------|------|------|------|
    ------------------|--0------------------------|------|------|------|------|
    ------------------|---------------------------|------|------|------|------|
    
    ------|------|------|------|------|------|------|------|------|------|------|
    ------|------|------|------|------|------|------|------|------|------|------|
    ------|------|------|------|------|------|------|------|------|------|------|
    ------|------|------|------|------|------|------|------|------|------|------|
    ------|------|------|------|------|------|------|------|------|------|------|
    ------|------|------|------|------|------|------|------|------|------|------|
    
    ------|------|------|------|------|------|------|------|------|------|------|
    ------|------|------|------|------|------|------|------|------|------|------|
    ------|------|------|------|------|------|------|------|------|------|------|
    ------|------|------|------|------|------|------|------|------|------|------|
    ------|------|------|------|------|------|------|------|------|------|------|
    ------|------|------|------|------|------|------|------|------|------|------|
    
    ------|------|------|---------------------|--------------------------------|
    ------|------|------|---------------------|------------------------5-5-5-5-|
    ------|------|------|---------------------|-----------------4--4-4---------|
    ------|------|------|--5----4----5--------|--5-5-5-5-5--5-5----------------|
    ------|------|------|---------------------|--------------------------------|
    ------|------|------|---------------------|--------------------------------|
    
    --------------------------------|------------------------------------|
    -----------------5--5-5-8-8-8-8-|----------5--5-5-8--8-8-12-12-12-12-|
    -------------4-4----------------|--4-4-4-4---------------------------|
    --5-5-5-5-5---------------------|------------------------------------|
    --------------------------------|------------------------------------|
    --------------------------------|------------------------------------|
    
    ----------------------13--10--12~---|----------------------------------|
    --8-8-8-8-12-12-12-12---------------|--------------------------5-5-5-5-|
    ------------------------------------|------------------4-4-4-4---------|
    ------------------------------------|--2-2-2-2-5-5-5-5-----------------|
    ------------------------------------|----------------------------------|
    ------------------------------------|----------------------------------|
    
    ----------------------------------|------|------|------|------|------|------|
    ------------------5-5-5-5-8-8-8-8-|------|------|------|------|------|------|
    ----------4-4-4-4-----------------|------|------|------|------|------|------|
    --5-5-5-5-------------------------|------|------|------|------|------|------|
    ----------------------------------|------|------|------|------|------|------|
    ----------------------------------|------|------|------|------|------|------|
    
    ------|------|------|------|------|------|------|------|------|------|------|
    ------|------|------|------|------|------|------|------|------|------|------|
    ------|------|------|------|------|------|------|------|------|------|------|
    ------|------|------|------|------|------|------|------|------|------|------|
    ------|------|------|------|------|------|------|------|------|------|------|
    ------|------|------|------|------|------|------|------|------|------|------|
    
    ------|------|---------------------|----17----------------------|
    ------|------|--0/-------------16--|--------13------------------|
    ------|------|---------------------|------------14--------------|
    ------|------|---------------------|----------------13------13--|
    ------|------|---------------------|----------------------------|
    ------|------|---------------------|----------------------------|
    
    ------------------------------|--8-12-8---------8-12-10-14-10----------10-14-|
    --------------13r-13----------|---------10---10---------------12----12-------|
    --14--------------------14----|------------9---------------------11----------|
    ------13----------------------|----------------------------------------------|
    ----------12------------------|----------------------------------------------|
    ------------------------------|----------------------------------------------|
    
    --12-17-12----------12-17-24----5/-17--|----17------17------17------17--|
    -----------15----15--------------------|--------20b-----20b-----20b-----|
    --------------14-----------------------|--------------------------------|
    ---------------------------------------|--------------------------------|
    ---------------------------------------|--------------------------------|
    ---------------------------------------|--------------------------------|
    
    --20b---20--20r-----5/-12--|--13-12-10----------------10-12-13-15-13-12-10----|
    ---------------------------|-----------13-12-10-12-13----------------------13-|
    ---------------------------|--------------------------------------------------|
    ---------------------------|--------------------------------------------------|
    ---------------------------|--------------------------------------------------|
    ---------------------------|--------------------------------------------------|
    
    --------------10-12-13-12/---------|------------------------------|
    --12-10-12-13----------------------|--------------12/-13--13--15--|
    -----------------------------------|--------7/-9------------------|
    -----------------------------------|-----7------------------------|
    --------------------------------5/-|--7---------------------------|
    -----------------------------------|------------------------------|
    
    ----------------------------|--------------------------------------------------|
    --15--15--13--12--13r-------|--------------------------------------------------|
    ----------------------------|-----------------------------------------------14-|
    ----------------------------|--------------------------14----------14-15-17----|
    ----------------------------|-----------------13-15-17----17-15-17-------------|
    ----------------------------|--17-15-13-15-17----------------------------------|
    
    -----------------------------------15-17-19-20-22-|--24--------24~-------|
    -----------------------15-18-17-18----------------|----------------------|
    --16-14----14-17-16-17----------------------------|----------------------|
    --------17----------------------------------------|----------------------|
    --------------------------------------------------|----------------------|
    --------------------------------------------------|----------------------|
    
    --22b-20----------------------|--15----14--12--15----14----12----|
    ---------22-------------------|--18----17--15--18----17----15----|
    -------------20--17b----------|----------------------------------|
    ------------------------------|----------------------------------|
    ------------------------------|----------------------------------|
    ---------------------15/------|----------------------------------|
    
    --14------x--20-23-20----------|------|------|------|------|-------------------|
    --17------x-----------21-------|------|------|------|------|-------------------|
    ----------x--------------20----|------|------|------|------|--5/---------------|
    ----------x--------------------|------|------|------|------|--5/---------------|
    -------------------------------|------|------|------|------|-------------------|
    -------------------------------|------|------|------|------|-------------------|
    
    ------|------|------|------|------|------|------|------|
    ------|------|------|------|------|------|------|------|
    ------|------|------|------|------|------|------|------|
    ------|------|------|------|------|------|------|------|
    ------|------|------|------|------|------|------|------|
    ------|------|------|------|------|------|------|------|
    
    --12----------12----------12------|--19----------19--20------------|
    ------13----------13----------13--|------20--------------22--------|
    ----------14----------14----------|----------19--------------21----|
    ----------------------------------|--------------------------------|
    ----------------------------------|--------------------------------|
    ----------------------------------|--------------------------------|
    
    --20----------------------20------|--19--15------19--17--------|
    ------22--------------22------22--|----------15----------------|
    ----------21------21--------------|----------------------------|
    --------------22------------------|----------------------------|
    ----------------------------------|----------------------------|
    ----------------------------------|----------------------------|
    
    --12----------12----------12------|--19----------19--20------------|
    ------13----------13----------13--|------20--------------22--------|
    ----------14----------14----------|----------19--------------21----|
    ----------------------------------|--------------------------------|
    ----------------------------------|--------------------------------|
    ----------------------------------|--------------------------------|
    
    --20----------------------20------|--19--15------19--17-19-17-15-17----|
    ------22--------------22------22--|----------15------------------------|
    ----------21------21--------------|------------------------------------|
    --------------22------------------|------------------------------------|
    ----------------------------------|------------------------------------|
    ----------------------------------|------------------------------------|
    
    --------------------------13--10--12--13--12--10--|
    --13--10--12--13--12--10--------------------------|
    --------------------------------------------------|
    --------------------------------------------------|
    --------------------------------------------------|
    --------------------------------------------------|
    
    ------------------------12--8--10--12--10--8--|
    --12--8--10--12--10--8------------------------|
    ----------------------------------------------|
    ----------------------------------------------|
    ----------------------------------------------|
    ----------------------------------------------|
    
    ----------------------10--7--8--10--8--7/-|--16--------------------------------|
    --10--6--8--10--8--6----------------------|------17--15--17--13--15--13--------|
    ------------------------------------------|------------------------------------|
    ------------------------------------------|------------------------------------|
    ------------------------------------------|------------------------------------|
    ------------------------------------------|------------------------------------|
    
    --12----------12----------12------|--19----------19--20------------|
    ------13----------13----------13--|------20--------------22--------|
    ----------14----------14----------|----------19--------------21----|
    ----------------------------------|--------------------------------|
    ----------------------------------|--------------------------------|
    ----------------------------------|--------------------------------|
    
    --20----------------------20----------------------|
    ------22--------------22------22--------------20--|
    ----------21------21--------------21------21------|
    --------------22----------------------22----------|
    --------------------------------------------------|
    --------------------------------------------------|
    
    --19------------------19--17--------|--12----------12----------12------|
    ------20----------------------------|------13----------13----------13--|
    ----------21------21----------------|----------14----------14----------|
    --------------21--------------------|----------------------------------|
    ------------------------------------|----------------------------------|
    ------------------------------------|----------------------------------|
    
    --19----------19--20------------|
    ------20--------------22--------|
    ----------19--------------21----|
    --------------------------------|
    --------------------------------|
    --------------------------------|
    
    -----------10-12-13-12-10-12-10----------------10-|
    --10-12-13----------------------13-12-10-12-13----|
    --------------------------------------------------|
    --------------------------------------------------|
    --------------------------------------------------|
    --------------------------------------------------|
    
    --12-13-15-13-12-10-----------------|--------------------------|
    --------------------13-12-10--------|--------------------------|
    ------------------------------------|--------------------------|
    ------------------------------------|--9--------9--------9-----|
    ------------------------------------|--9--------9--------9-----|
    ------------------------------------|--7--7--7--7--7--7--7--7--|
    
    ------------------------|--------------------------|----------------------|
    ------------------------|--------------------------|----------------------|
    ------------------------|--------------------------|----------------------|
    --7-----7----9----------|--9--------9--------9-----|--7----12----9--------|
    --7-----7----9----------|--9--------9--------9-----|--7----12----9--------|
    --5--5--5----7----7--7--|--7--7--7--7--7--7--7--7--|--5----10----7--------|
    
    --------------------------|------------------------|
    --------------------------|------------------------|
    --------------------------|------------------------|
    --9--------9--------9-----|--7----12----9----11----|
    --9--------9--------9-----|--7----12----9----11----|
    --7--7--7--7--7--7--7--7--|--5----10----7----9-----|
    
    ----------------------------------|---------------------|
    ----------------------------------|---------------------|
    ----------------------------------|-------9-------------|
    --12----------12----------12------|--7----9----9--------|
    --12----------12----------12------|--7----7----9--------|
    --10--10--10--10--10--10--10--10--|--5---------7--------|
    
    --------------------------|------------------------|--------------------------|
    --------------------------|------------------------|--------------------------|
    --9--------9--------9-----|--7-----7----9----------|--9--------9--------9-----|
    --9--------9--------9-----|--7-----7----9----------|--9--------9--------9-----|
    --7--7--7--7--7--7--7--7--|--5--5--5----7----7--7--|--7--7--7--7--7--7--7--7--|
    --------------------------|------------------------|--------------------------|
    
    ----------------------|--------------------------|------------------------|
    ----------------------|--------------------------|------------------------|
    --7----12----9--------|--9--------9--------9-----|--7-----7----9----------|
    --7----12----9--------|--9--------9--------9-----|--7-----7----9----------|
    --5----10----7--------|--7--7--7--7--7--7--7--7--|--5--5--5----7----7--7--|
    ----------------------|--------------------------|------------------------|
    
    ------|------|------|------|------|------|------|------|------|------|------|
    ------|------|------|------|------|------|------|------|------|------|------|
    ------|------|------|------|------|------|------|------|------|------|------|
    ------|------|------|------|------|------|------|------|------|------|------|
    ------|------|------|------|------|------|------|------|------|------|------|
    ------|------|------|------|------|------|------|------|------|------|------|
    
    ------|------|------|------|------|------|------|------|------|------|------||
    ------|------|------|------|------|------|------|------|------|------|------||
    ------|------|------|------|------|------|------|------|------|------|------||
    ------|------|------|------|------|------|------|------|------|------|------||
    ------|------|------|------|------|------|------|------|------|------|------||
    ------|------|------|------|------|------|------|------|------|------|------||…
  • Tuning: Down 1 1/2 steps to C#
    
    
     Keyboard intro arranged for guitar
    e|-0-0-7-0-0-0-8-0-|-0-0-7-0-0-0-5-0-|
    B|-----------------|-----------------|
    G|-----------------|-----------------|
    D|-----------------|-----------------|
    A|-----------------|-----------------|
    E|-----------------|-----------------|…
  • Tempo: 150.
    
    Tuning: DGCFAD
    
    Second part of the solo. 
    
    |-------------------------------------------|
    |-------------------------------------------|
    |-------------------------------------------|
    |-------------------------------------------|
    |-----------9-------9-11----9-11-12-9-11-12-|
    |---9-11-12---11-12------12-----------------|…
  • Tune down one whole step
    
    4/4 time, 204 bpm
    
    
     guitar 1          Riff A1
    |-----------------|-----------------|-----------------|-----------------|
    |-----------------|-----------------|-----------------|-----------------|
    |-----------------|-----------------|---------------7-|-----7---6s7---7-|
    |---------------9-|-----9---------9-|-----9---7h9---9-|-----9---9-----9-|
    |---------------7-|---7-7-7-7-7-7-7-|---7-7-7-7---x---|-----------------|
    |----/12---------|-----------------|-----------------|---7---7-----7---|
    
    
    |-----------------|-----------------|-----------------|-----------------|
    |-----------------|-----------------|-----------------|-----------------|
    |-----7---6s7---5-|-----5---4s5-----|-----------------|-----------------|
    |-----9---9-----7-|-----7---6s7-----|-----5-------4---|-----0-2-3-2-----|
    |-----------------|---------------3-|-3-3-3-3-5-5-5-5-|-----0-2-3-2-----|
    |-7-7---7-----7---|---5---5-----x---|-----------------|-0-0---------0-0-|…
  • D||------------------|------------------|------------------|------------------|
    A||------------------|------------------|------------------|------------------|
    F||------------------|------------------|------------------|------------------|
    C||------------------|------------------|------------------|------------------|
    G||------------------|------------------|------------------|------------------|
    D||------------------|------------------|------------------|------------------|
    
    ------------------|------------------|------------------|------------------|
    ------------------|------------------|------------------|------------------|
    ------------------|------------------|------------------|------------------|
    ------------------|------------------|------------------|------------------|
    ------------------|------------------|------------------|------------------|
    ------------------|------------------|------------------|------------------|
    
    ------------------|------------------|------------------|------------------|
    ------------------|------------------|------------------|------------------|
    ------------------|------------------|------------------|------------------|
    ------------------|------------------|------------------|------------------|
    ------------------|------------------|------------------|------------------|
    ------------------|------------------|------------------|------------------|
    
    ------------------|------------------|------------------|------------------|
    ------------------|------------------|------------------|------------------|
    ------------------|------------------|------------------|------------------|
    ------------------|------------------|------------------|------------------|
    ------------------|------------------|------------------|------------------|
    ------------------|------------------|------------------|------------------|
    
    ------------------|------------------|------------------|------------------|
    ------------------|------------------|------------------|------------------|
    ------------------|------------------|------------------|------------------|
    ------------------|------------------|------------------|------------------|
    ------------------|------------------|------------------|------------------|
    ------------------|------------------|------------------|------------------|
    
    ------------------|-------------------|-----------------------------|
    ------------------|-------------------|---------10------10r---------|
    ------------------|--6b---------------|--9--11------11--------------|
    ------------------|-------------------|-----------------------------|
    ------------------|-------------------|-----------------------------|
    ------------------|-------------------|-----------------------------|
    
    -------------------|--9b-------7b-------|---------------------|
    -------------------|--------------------|--7r-----------------|
    --9r---------------|--------------------|-----------9---------|
    -------------------|--------------------|----------------9----|
    -------------------|--------------------|---------------------|
    -------------------|--------------------|---------------------|
    
    -------------------|------------------|--10b---------------|
    -------------------|------------------|--------------------|
    ----------9--------|------------------|--------------------|
    -------------------|------------------|--------------------|
    -------------------|------------------|--------------------|
    -------------------|------------------|--------------------|
    
    --12-14-12-10-12--14--15--14--14r---|------12-10-12-10-------10----------------|
    ------------------------------------|------------------12-10----12-10----------|
    ------------------------------------|---------------------------------12-14-12-|
    ------------------------------------|------------------------------------------|
    ------------------------------------|------------------------------------------|
    ------------------------------------|------------------------------------------|
    
    --------------------------------------------|------------------|
    --------------------------------------------|------------------|
    --14-15-14-12----12-------------------------|------------------|
    --------------14-----14-12------------------|------------------|
    ---------------------------14-13-11---------|------------------|
    ------------------------------------15-12--|------------------|
    
    ------------------|------------------|------------------|------------------|
    ------------------|------------------|------------------|------------------|
    ------------------|------------------|------------------|------------------|
    ------------------|------------------|------------------|------------------|
    ------------------|------------------|------------------|------------------|
    ------------------|------------------|------------------|------------------|
    
    ------------------|------------------|------------------|------------------|
    ------------------|------------------|------------------|------------------|
    ------------------|------------------|------------------|------------------|
    ------------------|------------------|------------------|------------------|
    ------------------|------------------|------------------|------------------|
    ------------------|------------------|------------------|------------------|
    
    ------------------|------------------|------------------|------------------|
    ------------------|------------------|------------------|------------------|
    ------------------|------------------|------------------|------------------|
    ------------------|------------------|------------------|------------------|
    ------------------|------------------|------------------|------------------|
    ------------------|------------------|------------------|------------------|
    
    ------------------|------------------|--17r---------------|------------------|
    ------------------|------------------|--------------------|------------------|
    ------------------|------------------|--------------------|------------------|
    ------------------|------------------|--------------------|------------------|
    ------------------|------------------|--------------------|------------------|
    ------------------|------------------|--------------------|------------------|
    
    --------------------|------------------|
    --15b---------------|------------------|
    --------------------|------------------|
    --------------------|------------------|
    --------------------|------------------|
    --------------------|------------------|
    
    --------------------------------------------------|
    --17-15----------15-------------------------------|
    --------15-14-12----15-14-12-11-15-14-12-15-15-12-|
    --------------------------------------------------|
    --------------------------------------------------|
    --------------------------------------------------|
    
    --------------------------------------------------|
    --------------------------------------------------|
    --------------------------12-14-15-14-12-15-14-12-|
    --14-12----------12-14-16-------------------------|
    --------14-12-14----------------------------------|
    --------------------------------------------------|
    
    --------------------14-15-16-15-14----------------|
    --14-15-12-14-15-12----------------17-15-14-12-15-|
    --------------------------------------------------|
    --------------------------------------------------|
    --------------------------------------------------|
    --------------------------------------------------|
    
    --------------------------------------------------|
    --14-12-14-15-14-12-14-15-14-12----------14-12-14-|
    --------------------------------15-14-12----------|
    --------------------------------------------------|
    --------------------------------------------------|
    --------------------------------------------------|
    
    --------------------------------------------------|
    --15-14-12----------------------------------------|
    -----------15-14-12-15-14-12-14-12-14-15-14-12----|
    -----------------------------------------------14-|
    --------------------------------------------------|
    --------------------------------------------------|
    
    --------------------------------------------|
    --------------------------------------------|
    -----14-12----------------------------------|
    --12-------14-12-------14-12----------------|
    -----------------14-12-------14-12----------|
    -----------------------------------15-12----|
    
    --------------------------------------------------|
    --------------------------------------------------|
    --------------------------------------------------|
    --------------------------------15-17-18-15-17-18-|
    -----------12----------12-14-15-------------------|
    --12-14-15----15-14-15----------------------------|
    
    -----------------------19-20-22-24-----|------------------|------------------|
    -----------19-18-19-21------------------|------------------|------------------|
    --16-18-20------------------------------|------------------|------------------|
    ----------------------------------------|------------------|------------------|
    ----------------------------------------|------------------|------------------|
    ----------------------------------------|------------------|------------------|
    
    ------------------|------------------|------------------|------------------|
    ------------------|------------------|------------------|------------------|
    ------------------|------------------|------------------|------------------|
    ------------------|------------------|------------------|------------------|
    ------------------|------------------|------------------|------------------|
    ------------------|------------------|------------------|------------------|
    
    ------------------|------------------|------------------|------------------|
    ------------------|------------------|------------------|------------------|
    ------------------|------------------|------------------|------------------|
    ------------------|------------------|------------------|------------------|
    ------------------|------------------|------------------|------------------|
    ------------------|------------------|------------------|------------------|
    
    --15-15-15-15-14----------15--------|------------------|
    -----------------17-15-14-----------|------------------|
    ------------------------------------|------------------|
    ------------------------------------|------------------|
    ------------------------------------|------------------|
    ------------------------------------|------------------|
    
    --17-15-19-15-17-15-------19--------|------------------|
    --------------------17-14-----------|------------------|
    ------------------------------------|------------------|
    ------------------------------------|------------------|
    ------------------------------------|------------------|
    ------------------------------------|------------------|
    
    --------------------15-19-24t-------|------------------|------------------|
    -----------------17-----------------|------------------|------------------|
    --------------16--------------------|------------------|------------------|
    -----------17-----------------------|------------------|------------------|
    -----14-19--------------------------|------------------|------------------|
    --15--------------------------------|------------------|------------------|
    
    --20-19-17----------------------------------------|
    -----------20-19-17-20-19-17----------------------|
    -----------------------------19-17-16-19-17-16----|
    -----------------------------------------------19-|
    --------------------------------------------------|
    --------------------------------------------------|
    
    ------------------------------------------------|------------------|
    ------------------------------------------------|------------------|
    ------------------------------------------------|------------------|
    --17-16-19-17-16--------------------------------|------------------|
    -----------------19-17-15-19-17-15--------------|------------------|
    -----------------------------------19-17-14-15--|------------------|
    
    ------------------|------------------|------------------|------------------|
    ------------------|------------------|------------------|------------------|
    ------------------|------------------|------------------|------------------|
    ------------------|------------------|------------------|------------------|
    ------------------|------------------|------------------|------------------|
    ------------------|------------------|------------------|------------------|
    
    --12-14-15-14-12-15-12-14-15-14-12-15-12-14-15-14-|
    --------------------------------------------------|
    --------------------------------------------------|
    --------------------------------------------------|
    --------------------------------------------------|
    --------------------------------------------------|
    
    --12-15-12-14-15-14-12-15-12-14-15-14-12-15-12-14-|
    --------------------------------------------------|
    --------------------------------------------------|
    --------------------------------------------------|
    --------------------------------------------------|
    --------------------------------------------------|
    
    --15-14-12-17-12-15-12-14-15-14-12-17-12-15-12-14-|
    --------------------------------------------------|
    --------------------------------------------------|
    --------------------------------------------------|
    --------------------------------------------------|
    --------------------------------------------------|
    
    --15-14-12-17-12-15-12-14-15-14-12-17-12-14-15-14-|
    --------------------------------------------------|
    --------------------------------------------------|
    --------------------------------------------------|
    --------------------------------------------------|
    --------------------------------------------------|
    
    --12-17-12-14-15-14-12-17-12-14-15-14-12-17-19-19-|
    --------------------------------------------------|
    --------------------------------------------------|
    --------------------------------------------------|
    --------------------------------------------------|
    --------------------------------------------------|
    
    --19-19-19-19-19-19-19-19-19--------|------------------|------------------|
    ------------------------------------|------------------|------------------|
    ------------------------------------|------------------|------------------|
    ------------------------------------|------------------|------------------|
    ------------------------------------|------------------|------------------|
    ------------------------------------|------------------|------------------|
    
    ------------------|------------------|------------------|------------------|
    ------------------|------------------|------------------|------------------|
    ------------------|------------------|------------------|------------------|
    ------------------|------------------|------------------|------------------|
    ------------------|------------------|------------------|------------------|
    ------------------|------------------|------------------|------------------|
    
    ------------------|------------------|------------------|------------------|
    ------------------|------------------|------------------|------------------|
    ------------------|------------------|------------------|------------------|
    ------------------|------------------|------------------|------------------|
    ------------------|------------------|------------------|------------------|
    ------------------|------------------|------------------|------------------|
    
    ------------------||-----------------------|----------------------|
    ------------------||-----------------------|----------------------|
    ------------------||*----------------------|----------------------|
    ------------------||*--2-------------------|--4-------------------|
    ------------------||---0-------------------|--2-------------------|
    ------------------||--------2----2----2----|-------2----2----2----|…
  • D||-------|-----------||---------------------------|--------------------------|
    A||-------|-----------||---------------------------|--------------------------|
    F||*------|----------*||*--9--9--9--9--9--9--9--9--|--9--9--9--9--7--7--7--7--|
    C||*------|----------*||*--9--9--9--9--9--9--9--9--|--9--9--9--9--7--7--7--7--|
    G||-------|-----------||---7--7--7--7--7--7--7--7--|--7--7--7--7--5--5--5--5--|
    D||-------|-----------||---------------------------|--------------------------|
    
    --------------------------|-------------------------------||
    --------------------------|-------------------------------||
    --9--9--9--9--9--9--9--9--|--9--9--9--9--12--12----------*||
    --9--9--9--9--9--9--9--9--|--9--9--9--9--12--12--12--12--*||
    --7--7--7--7--7--7--7--7--|--7--7--7--7--10--10--12--12---||
    --------------------------|----------------------10--10---||…
  • Tune down one whole step
    4/4 time, 150 bpm
    
    
    (Keyboards)
    |------------|------------|------------|----------------------------|
    |------------|------------|------------|----------------------------|
    |------------|------------|------------|----------------------------|
    |------------|------------|------------|----------------------------|
    |------------|------------|------------|----------------------------|
    |------------|------------|------------|----------------------------|
    |-------------------------------|-----------------10-8--------------|
    |-12-8---------8-11-8---------8-|-12-8----8-10-12------12-10-8------|
    |------11-9-11--------11-9-11---|------11----------------------11---|
    |-------------------------------|-----------------------------------|
    |-------------------------------|-----------------------------------|
    |-------------------------------|-----------------------------------|
    |
    |-------------------------------|---------------------------------|
    |-------------------------------|---------------------------------|
    |-------------------------------|-----------------5-------7-------|
    |-2--------------3--------------|-2---------------5-------7-------|
    |-2--------------3--------------|-2---------------3-------5-------|
    |-0--------------1--------------|-0-------------------------------|
    
    
    |-------------------------------|-----------------10-8------------|
    |-12-8---------8-11-8---------8-|-12-8----8-10-12------12-10-8----|
    |------11-9-11--------11-9-11---|------11----------------------11-|
    |-------------------------------|---------------------------------|
    |-------------------------------|---------------------------------|
    |-------------------------------|---------------------------------|
    |
    |-------------------------------|---------------------------------|
    |-------------------------------|---------------------------------|
    |----------------3--------------|-----------------5-------7-------|
    |-2--------------3-------3-3-3--|-2---------------5-------7-------|
    |-2-------2-2-2--1-------1-1-1--|-2-------2-2-2---3-------5-------|
    |-0-------0-0-0-----------------|-0-------0-0-0-------------------|…
  • Tune down one whole step:  D G C F A D
    
    4/4 time
    
    tempo: 190
    
              Riff 1
    |---------|------------------|-----------------|------------------|-----------------------|
    |---------|------------------|-----------------|------------------|-----------------------|
    |---------|------------------|-----------------|------------------|-----------------------|
    |---------|---9-------9------|---9---9-8----9--|-------9-------9--|-----------12/11/12----|…
  • INTRO
                    A                               B      C
    -|---------------------------------------------------------|
    -|---------------------------------------------------------|
    -|---------------------------------------------------------|
    -|-----------------------------------------------------9-7-|
    -|-10p7-7-7-7-7-7-7-10p7-7-7-9p7-12p7-10p7-7-7-7-7-7-7-7-5-|
    -|---------------------------------------------------------|…
  • Tuning=DGCFAD
    
    
    riff 1 - intro (x15) (both guitars)
    ----------------|
    ----------------|
    ----------------|
    ----4-6-4-7--6--|
    --7-------------|
    ----------------|
    
    last time (16th time)
    ----------------|
    ----------------|
    ----------------|
    --4----6--4-----|
    ----7--------7--|
    ----------------|
    
    riff…
  • Tuning:
    Whole step down -> D G C F A D
    
    
    Keyboard intro (4 x)
    e|-19-15---18-14---17-13---16-12---------------------------------------------|
    B|---------------------------------------------------------------------------|
    G|---------------------------------------------------------------------------|
    D|---------------------------------------------------------------------------|
    A|---------------------------------------------------------------------------|
    E|---------------------------------------------------------------------------|
    
    Riff…
  • Tune all Strings down one Whole Step: D A F G C D
    
                                                     1.               2.
    D:---------------------------------------------||---------------||-------|
    A:---------------------------------------------||---------------||-------|
    F:-999-101010-77-999-121212-77-999-101010-77-9-||---------------||-4-5-7-|
    G:-999-101010-77-999-121212-77-999-101010-77-9-||---------------||-4-5-7-|
    C:-777-8-8-8--55-777-101010-55-777-8-8-8--55-7-||---------------||-2-3-5-|
    D:---------------------------------------------||-0-1-0-1-0-1-0-||-------|…
  • Tuning:standard
    
    
    Gtr I (E A D G B E) - 'Lead'
    Gtr II (E A D G B E) - 'Rhythm'
    Gtr III (E A D G B E) - 'Lead2'
    
    
      Q=180
     4/4
      Gtr I
      PM---|           PM---|          PM---|           PM---|
      E  E E  H    E   E  E E H…
  • Tune all strings down one-whole step
    
    Guitar 1
    |D:-----| |------------------|--------------|------------------|
    |A:-----| |------------------|----5------5--|------------------|
    |F:-----| |----------------7-|-5------------|----------------7-|
    |C:-12-|…
  • Tuning D (D G C F A D)
     
    
     Riff 1
    |---------------------------------------------------------------------------|
    |---------------------------------------------------------------------------|
    |---------------------------------------------------------------------------|
    |---------------------------------------------------------------------54---|
    |---2----2-6-5-3-5-4-3-2-------3---------2--6-5-3-5-4-3-2-----3/4-----32---|
    |-0-0----0-4-3-1-3-2-1-0-00000-1-00000---0--4-3-1-3-2-1-0-0-0-1/2-0-0-------|
    
    
    
    |---------------------------------------------------------------------------|
    |---------------------------------------------------------------------------|
    |------------------------------------------------------------------------7--|
    |---------------------------------------------------------------54-----7--|
    |--2-6-5-3-5-4-3-2-------3---------2--6-5-3-5-4-3-2-----3/4-----32-----5--|
    |--0-4-3-1-3-2-1-0-00000-1-00000---0--4-3-1-3-2-1-0-0-0-1/2-0-0-------------|…
  • Guitar 1
    
    E||------------------|----------------------------|
    B||------------------|--14------14-12-14----------|
    G||------------------|----------------------------|
    D||------------------|----------------------16----|
    A||------------------|--16------------------------|
    E||------------------|----------------------------|…
  • Tune down one whole step
    
    4/4 time, 180 bpm
    
    
    |-------------|---------------|-------------|----------------|
    |-------------|---------------|-------------|----------------|
    |-------------|---------------|-------------|----------5---7-|
    |-2-----------|---------5---0-|-2-----------|----------5---7-|
    |-2-----------|---------5---0-|-2-----------|----------3---5-|
    |-0-----------|---------3-----|-0-----------|----------------|…
  • |--------------|
    |--------------|
    |--------------|
    |--2--2--2--2--|
    |--2--2--2--2--|
    |--0--0--0--0--|
    
    |---------------------------------------------------|
    |---------------------------------------------------|
    |--10...-9...-7...-9..-10..-------------------------|
    |---------------------------------------------------|
    |---------------------------8...-7...-5...-7..-8..--|
    |---------------------------------------------------|
    
    |-----------------|
    |-----------------|
    |--7--7-10--9--7--|
    |--7--7-10--9--7--|
    |--5--5-8---7--5--|
    |-----------------|
    
    |------------------------------|
    |------------------------------|
    |--10-9--7--9-10---------------|
    |----------------8--7--5--7-8--|
    |--8--7--5--7-8----------------|
    |----------------6--5--3--5-6--|…
  • Tuning: DGCFAD
     
    
    e|-----------|-----------|-----------|---------------|
    B|-----------|-----------|-----------|---------------|
    G|-----------|-----------|-----------|---------------|
    D|-----------|---------7-|-----------|---------------|
    A|-4---4---5-|-4---4---5-|-4---4---5-|---------------|
    E|-2-0-2-0-3-|-2-0-2-0---|-2-0-2-0-3-|-22222222222222|
    
    
    e|-----------|-----------|-----------|-----------------|
    B|-----------|-----------|-----------|-----------------|
    G|-----------|-----------|-----------|----------8-10-9~|
    D|-----------|---------7-|-----------|-7-10-9-7--------|
    A|-4---4---5-|-4---4---5-|-4---4---5-|-----------------|
    E|-2-0-2-0-3-|-2-0-2-0---|-2-0-2-0-3-|-----------------|
    
    
    e|-----------|-----------|-----------|---------------|
    B|-----------|-----------|-----------|---------------|
    G|-----------|-----------|-----------|---------------|
    D|-----------|---------7-|-----------|---------------|
    A|-4---4---5-|-4---4---5-|-4---4---5-|---------------|
    E|-2-0-2-0-3-|-2-0-2-0---|-2-0-2-0-3-|-22222233332222|
    
    e|-----------|-----------|-----------|-----------------|
    B|-----------|-----------|-----------|-----------------|
    G|-----------|-----------|-----------|----------8-10-9~|
    D|-----------|---------7-|-----------|-7-10-9-7--------|
    A|-4---4---5-|-4---4---5-|-4---4---5-|-----------------|
    E|-2-0-2-0-3-|-2-0-2-0---|-2-0-2-0-3-|-----------------|
    
    e|---------|-------------|--------------|-----------|---------------|
    B|---------|-------------|--------------|-----------|---------------|
    G|---------|-------------|--------------|-----------|---------------|
    D|---------|-------------|--------------|-----------|-------5---7-5-|
    A|-4--4----|---------4-4-|----5-5-5-2-2-|--4--3-4---|--4-4--3-5-5-3-|
    E|-2--2----|--2-2-2--2-2-|--------------|--2--1-2---|--2-2----3-----|
    
    e|-----------|-----------|-----------|---------------|
    B|-----------|-----------|-----------|---------------|
    G|-----------|-----------|-----------|---------------|
    D|-----------|---------7-|-----------|---------------|
    A|-4---4---5-|-4---4---5-|-4---4---5-|---------------|
    E|-2-0-2-0-3-|-2-0-2-0---|-2-0-2-0-3-|-22222233332222|
    
    e|-----------|-----------|-----------|-----------------|
    B|-----------|-----------|-----------|-----------------|
    G|-----------|-----------|-----------|----------8-10-9~|
    D|-----------|---------7-|-----------|-7-10-9-7--------|
    A|-4---4---5-|-4---4---5-|-4---4---5-|-----------------|
    E|-2-0-2-0-3-|-2-0-2-0---|-2-0-2-0-3-|-----------------|…
  • Intro: 
    
      C#m         B#dim       C#m C#m         B#dim       C#m
    (gtr1, right channel)
    |----------12-15p14p1211-12-----------12-15p14p1211-12-|
    |-------12--------------------------12-------------------|
    |----12--------------------------12----------------------|
    |-14--------------------------14-------------------------|
    |--------------------------------------------------------|
    |--------------------------------------------------------|…
  • tune one whole step (E1=D, B=A, G=F, D=C, A=G, E2=D)
    
    
    (Without distortion)
    
    E|-------------------------------------------------------|---12-----------------------|
    B|---------------------------------12--------------------|-------15--12---------------|
    G|-----------------------------12------14~-----14--12----|o-------------12-14--12--14-|
    D|-2--------------------------------------------------14-|o---------------------------|
    A|-2-----------------------------------------------------|----------------------------|
    E|-0-----------------------------------------------------|----------------------------|
    
    
    E|--------------------------------------------------12-------------------------------------------|
    B|-----------------------------------------------------15--12------------------------------------|
    G|-------12--14--12--14--12--14--12---------------------------12-14-14-12--14-----12--14--12--14-|
    D|---14------------------------------14----12--14------------------------------14----------------|
    A|-----------------------------------------------------------------------------------------------|
    E|-----------------------------------------------------------------------------------------------|
    
    
    E|-----------12----------------------------|
    B|--12-13-15----15--12---------------------|
    G|----------------------12----------------o|
    D|-------------------------14-----9*------o|
    A|--------------------------------7*-------|
    E|-----------------------------------------|
    
    
    *=let…
  • Gtr I (D G C F A D) - 'Untitled'
    Gtr II (D G C F A D) - 'Untitled'
    
    
        Q=142
       4/4
        Gtr I
             PM----------------|            PM--------|     ~~~
        S  S S S S S S S S S S S  Q    S  S S S S S S S Q   Q
    ||-------------------------------|--------------------------|
    ||o------------------------------|--------------------------|
    ||---------------------------10--|--------------------------|
    ||--5--7---------------------10--|-5--7-------------7--[7]--|
    ||o------0-0-0-0-0-0-0-0-0-0--8--|------0-0-0-0-0-0-5-------|
    ||-------------------------------|--------------------------|
    |
    |…
  • Tune down one whole step to D!
    
    
    solo:
    			 	pm.					   	   		pm.							  pm.
    |---------------------------------------------------15------17------------17------19---|
    |-----------10------13--10-------sl.--------15----------17------17----17------17-------|
    |--10---10------10----------10--10/12---12------12-------------------------------------|
    |--------------------------------------------------------------------------------------|
    |--------------------------------------------------------------------------------------|
    |--------------------------------------------------------------------------------------|…
Наверх