Аккорды «Chimaira»

Chimaira
«Это не та музыка, которую слушают один раз и сразу же забывают про неё» - говорит Марк. «Эти песни будут крутиться у тебя в голове до конца твоей жизни. Люди послушают это впервые и скажут: «А это интересно, стоит послушать ещё разок». На третье прослушивание они скажут: «Ммм, а я начал понимать эту музыку…» Chimaira (читается «каймира») — американская металкор/грув метал-группа, играющая с 1995 года. Группе Chimaira удалось привлечь к себе внимание и сформировать прочную толпу фэнов ещё в 1999… Читать полностью... «Это не та музыка, которую слушают один раз и сразу же забывают про неё» - говорит Марк. «Эти песни будут крутиться у тебя в голове до конца твоей жизни. Люди послушают это впервые и скажут: «А это интересно, стоит послушать ещё разок». На третье прослушивание они скажут: «Ммм, а я начал понимать эту музыку…» Chimaira (читается «каймира») — американская металкор/грув метал-группа, играющая с 1995 года. Группе Chimaira удалось привлечь к себе внимание и сформировать прочную толпу фэнов ещё в 1999 году, с выходом альбома This Present Darkness. Затем последовал альбом Pass Out of the Existence, который ознаменовал полное и крепкое становление группы в мире тяжёлой музыки. 1998—2002 Изначально в состав группы входили вокалист Марк Хантер, лид-гитарист Роб Арнольд, ритм-гитарист Джейсон Хейджер, басист Джим ЛаМарка, барабанщик Эндолс Херрик и клавишник Крис Спикузза. Их демоальбом был положительно встречен публикой и довольно часто проигрывался по местным радиостанциям. В 2000 году группа записала свой первый EP This Present Darkness. Благодаря успеху EP музыканты заключили контракт с Roadrunner Records и выпустили в 2001 году свой дебютный альбом Pass out of Existence. Вскоре после окончания турне в поддержку альбома Джейсон Хэйджер ушёл из Chimaira, чтобы заняться своей семейной жизнью. Мэтт ДеВрис из группы Ascension стал новым ритм-гитаристом. После короткой паузы, в 2002 году музыканты начали записывать свой второй альбом The Impossibility of Reason. Альбом должен был стать чем-то уникальным в мире метала, неподвластным моде, безо всяких черт ню-метала 2002—2005 «Impossibility of Reason стал менее футуристичным нежели Pass out of the Existence, звук стал более мрачным.» - говорит Марк - «Сильные низкие частоты заставляют почувствовать тебя внутри этой музыки.» Звук группы в значительной степени изменился благодаря новому стилю вокала. Что касается лирики, то здесь Impossibility of Reason не представляет собой чего-то принципиально нового. Тексты преимущественно основываются на двух темах - отторжение и месть. «Мы стараемся писать песни, которые будут близки нашим фэнам. Любого из нас отрицали, предавали. Мы знаем, что эта лирика зацепит тебя, и она актуальна в современном обществе.» - Марк. «Эта запись была наиболее тяжёлой и жёсткой, и фанаты получали всё, что они хотели, даже несколько больше» - говорит Марк. В то время, когда многие группы думали о том, как бы сделать свои имидж и музыку менее резкими, Chimaira с выходом The Impossibility of Reason наоборот сделали звук ещё более жёстким. «Посмотрите на большинство метал-групп, большинство из них изменяет свой стиль от альбома к альбому, мы же хотим развивать свою музыку иным путём - мы привносим нечто новое в наш стиль, обходясь без кардинальных изменений.» Роб Арнольд: «У нас своё отношение к развитию музыки, которую мы делаем. Ярость. Скорость. Агрессия.» После выхода альбома в 2003 году ударник Эндолс Херрик покинул группу. Он был недоволен постоянными концертами и связанными с ними перездами и решил поступить в колледж, чтобы получить музыкальное образование. Его заменил швед Рики Ивенсенд, но проблемы с визой и собственый вспыльчивый характер не позволили скандинаву надолго остаться в Chimaira. По совету гитариста группы Slayer Кэрри Кинга Хантер договорился с опытным ударником Кевином Тэлли, который ранее играл в группах Dying Fetus и Misery Index. Группа объявила о записи нового альбома после тура в поддержку альбома The Impossibility of Reason, в котором группа пребывала два года. Chimaira выступали в качестве хэдлайнеров на Ozzfest 2003, Jagermaster Spring 2004, Summer 2004 Roadrage с группами Lamb of God, Slipknot, Fear Factory. Помимо этого группа также отыграла 330 концертов в 21 стране Европы. «Мы уже горели желанием начать записывать новый диск,» - говорит Марк. «Будучи в турне, мы не думали, что с этим возникнут какие-то трудности. Но когда тур закончился, мы ещё месяц обдумывали множество идей, касающихся новой записи». Музыканты вновь соединились с продюсером Беном Шигелом (Ben Schigel) из Spider Studios. Закончив турне, музыканты приступили записи нового альбома. 2005—2007 В 2005 году группа выпустила альбом Chimaira и такое решение было не безосновано. Музыканты записали альбом, который целиком и полностью отображает весь потенциал группы. Именно к этой записи Chimaira стремились все эти годы. Музыка стала настолько отточеной и цельной, насколько этого хотели участники. Музыканты считают, что этот альбом - тот самый вклад в мир тяжёлой музыки, который хотел сделать каждый из участников. Альбом открывает убойный трек Nothing Remains, который был написан в день убийства Даймбэга Даррелла. Марк говорит: «В эту песню мы вложили всё наше зло и негодование, связанные с этим убийством. Мы около часа сидели в тишине, потом Роб взял гитару и начал играть. Так родилась новая песня». С прослушиванием первого трека тяжесть не спадает - следующий трек - Save ourselves - продолжает уничтожать слушателя жёсткостью. Salvation, вероятно, наиболее мелодичная песня с альбома. Подобный характер песне придаёт красивый припев. Заключительная песня - эпичная и глубокая Lazarus. Марк говорит, что «Песня посвящена не библейскому персонажу, а другу, который покончил с жизнью 11 лет назад. Это, наверное, наиболее личная песня из всех, которые я написал.» «Лирика довольно глубокая, и фэны, которые ждали от нас выкриков «Fuck You», возможно, разочаровались. Это сделало музыку более осмысленной. Я больше работал над текстами, и решил отойти от налёта неопределённости, присутствовавшего на предыдущих альбомах.» - Марк. Группа очень гордится тем, что одноимённик получился очень профессиональным и свежим в плане музыки, так как соло Роба Арнольда не похожи ни на что с прошлых альбомов. Гроулинг Марка стал более насыщенным, а новые электроника и эмбиент Криса сделали и без того жёсткий звук группы ещё более жёстким. По словам Марка, «Крис брал эпичные и мрачные отрывки песен и делал их ещё более эпичными. Возможно ты спросишь «Как у них получается такой звук?» - Это наш фирменный приём!». Кевин - новый барабанщик - уже проявил себя в дэзовых группах Misery Index и Dying Fetus. Его присутствие постоянно чувствуется как на альбоме, так и на концертах. «Его игра просто сносит тебе голову, это неоспоримо. Это звучит круто.» - Марк. Но не только Кевин привнёс много нового в музыку группы. Марк говорит, что «Каждый вложил что-то своё, каждый отдал группе часть своего стиля игры. Так что этот альбом - действительно альбом группы Chimaira. Мы - как три совершенно разных непримиримых существа, объединённых одной плотью.» Помимо тура Sounds of the Underground музыканты также приняли участие в записи юбилейного сборника Roadrunner Records The All-Star Sessions. Эндолс Херрик также участвовал в этом проекте и принял решение вернуться в группу. Расставание с Тэлли прошло безболезненно, так как ударник к этому моменту получил целый ряд приглашений от других коллективов (The Red Chord, Misery Index, Dååth). В 2007 году музыканты выпустили альбом Resurrection, который не разочаровал старых фанатов. 2008—Present Days Продюсером пятого альбома Chimaira выступил Бэн Шигель, также работавший над альбомами The Impossibility of Reason и Chimaira. Над сведением работал некто Zeuss (Hatebreed, Shadows Fall). Дата релиза назначена на 21 апреля 2009. 9 января 2009 года было объявлено, что альбом полностью готов и отправлен на лейбл для прослушивания продюсерами. 21 апреля 2009 года альбом официально увидел свет. Скрыть...
Популярные аккорды Chimaira:
алфавиту | просмотрам | случайно
  • ||-------------------------------------------------------------------------||
    ||-------------------------------------------------------------------------||
    ||-------------------------------------------------------------------------||
    ||-------------------------------------------------------------------------||
    ||-------------------------------------------------------------------------||
    ||----5--------0--5-----0-5-6--repeat--------------------------------------||
    ||-----------------------------------------------1-------0---1----0-1-2----||
    
    
    
    ||--------------------------------------------------------------||
    ||--------------------------------------------------------------||
    ||--------------------------------------------------------------||
    ||---7-----------7-------7-8------------------------------------||
    ||--------------------------------------------------------------||
    ||---5-------0--5----0-5-6------1-------0----1---0-1-2----------||
    ||----------------------------------1-------0----1---0-1-2------||
    
    
    ||---------------------------------------------------------------------||
    ||---------------------------------------------------------------------||
    ||---------------------------------------------------------------------||
    ||---------------------------------------------------------------------||
    ||---------------------------------------------------------------------||
    ||---1------2----/6-------2-------1------2----------------0------------||
    ||---1------2----/6-------2-------1------2-------/6------0-------------||
    
    
    
    ||-------------------------------------------------------------------------------------||
    ||-------------------------------------------------------------------------------------||
    ||-------------------------------------------------------------------------------------||
    ||-------------------------------------------------------------------------------------||
    ||----2-2-2-2-2---------------------------------------------------------------3-3-3-3--||
    ||--------------------3-3-3-3-3---2-2-2-2----2-2-2-2---5-5-5-5-5-----------------------||
    ||-------------------------------------------------------------------------------------||
    
    
    
    
    ||------------------------------------------------------------||
    ||------------------------------------------------------------||
    ||------------------------------------------------------------||
    ||------------------------------------------------------------||
    ||------------------------------------------------------------||
    ||---7-------3----2-----------2------5---/--8-----------------||
    ||---7-------3----2-----------2------5---/--8-----------------||
    
    back…
  • Tuning - C, G, C, F, A, D
    
    INTRO
    -------------------------------------------------------------------------
    -------------------------------------------------------------------------
    -------------------------------------------------------------------------
    -------------------------------------------------------------------------
    ---11-10-11-13-11-11-11-13-11-13-15-13-13-13-13-15-15-15-13-13-15-13-15^-
    -------------------------------------------------------------------------
    
    ----------------------------------------------------------------
    ----------------------------------------------------------------
    ---21-19-19/18-15-15-15-15-17-17-17-15-15-17-15-17^-------------
    ----------------------------------------------------------------
    ----------------------------------------------------------------
    ----------------------------------------------------------------
    CHORUS
    ----------------------------------------------|------------------
    ----------------------------------------------|------------------
    ----------------------------------------------|------------------
    ----------------------------------------------|------------------
    --3331114443336441131134431-------------------|-----------3------
    --3331114443336441131134431-------------------|-----------3------
    pm…
  • TUNING: 7-string guitar; AEADGBE once again. . NOT IN DROP G
    
    Intro/used later too I believe
    ||----------------------------------------------------||
    ||----------------------------------------------------||
    ||----------------------------------------------------||
    ||----------------------------------------------------||
    ||----------------------------------------------------||
    ||--4-4-4-4--3------4-4-4-4--3-----4-4-3---4-4-3------||
    ||--4-4-4-4--3------4-4-4-4--3-----4-4-3---4-4-3------||
    
    
    ||--------------------------------------------------------||
    ||--------------------------------------------------------||
    ||--------------------------------------------------------||
    ||--------------------------------------------------------||
    ||--------------------------------------------------------||
    ||---0-0-0---0-0-----0-0-0---0-0-----4-3----4-3-----------||
    ||---0-0-0---0-0-----0-0-0---0-0-----4-3----4-3-----------||
    
    Verse…
  • Tuning drop C CGCFAD
    
    
       Intro clean tone
    
    C--------------------------------------
    G--3h4---4h5-----9h10------------------x2
    C-----5p4----/9h8---12h11--------------
    F--------------------------------------
    A--------------------------------------
    D--------------------------------------
    
    Harmonize…
  • Tuning: CGCFAD
    
    Riff A
    |----------------------------------------------------|
    |----------------------------------------------------|
    |-----------------------------6666--5555--6666--8888-|
    |----------------7777--8888--------------------------|
    |---6666--6666---------------------------------------|
    |----------------------------------------------------|
    
    Riff…
  • D-------------------------------------------------------------------------
    A-------------------------------------------------------------------------
    F-------------------------------------------------------------------------
    Cx1-x1-x1-x1-x1-x1-x1-x1-x1-------0-------0-------0---------1-x1-x1-x1----
    Gx1-x1-x1-x1-x1-x1-x1-x1-x1-------0-------0-------0---------1-x1-x1-x1----
    Cx1-x1-x1-x1-x1-x1-x1-x1-x1-xxxxx-0-xxxxx-0-xxxxx-0-xxxx----1-x1-x1-x1----
    
    D--------------------------------------------------------------------------
    A--------------------------------------------------------------------------
    F---------------------------------------------------------5/7-----5/7------
    Cx1-x1-x1-x1-3-1-0-1--x1-x1-x1-x1----------------x1-x1-x1-x/x-3/5-x/x-3/5--
    Gx1-x1-x1-x1-3-1-0-1--x1-x1-x1-x1----------------x1-x1-x1-3/5-3/5-3/5-3/5--
    Cx1-x1-x1-x1-3-1-0-1--x1-x1-x1-x1-11111-4-1/24/1-x1-x1-x1-----3/5-----3/5--
    
    D------------------------------------------------------------------------
    A------------------------------------------------------------------------
    F--------------------------------------1--------------------1------------
    C-x1-x1-x1-----------------0---11/2---2----1-11-0--11/2---2-----1-11-----
    G-x1-x1-x1-----------------0---11/2-2------1-11-0--11/2-2-------1-11-----
    C-x1-x1-x1--11111-4-1/24/1-0---11/2------2-1-11-0--11/2-------2-1-11-----
    
    D------------------------------------------------------------------------
    A------------------------------------------------------------------------
    F------------------------------------------------------------------------
    C-x1-x1-x1-3-1-0-1--x1-x1-x1-3-1-0-1--x1-x1-x1-3-1-0-1--x1-x1-x1-3-1-0-1-
    G-x1-x1-x1-3-1-0-1--x1-x1-x1-3-1-0-1--x1-x1-x1-3-1-0-1--x1-x1-x1-3-1-0-1-
    C-x1-x1-x1-3-1-0-1--x1-x1-x1-3-1-0-1--x1-x1-x1-3-1-0-1--x1-x1-x1-3-1-0-1-
    
    D--------------------------------------------------------------------------
    A--------------------------------------------------------------------------
    F------------------------------------------5/7-----------------------------
    C--------0-------0-------0----x--x1-x1-x1--x/x-3/5--x1-x1-x1-------0------x
    G--------0-------0-------0----x--x1-x1-x1--3/5-3/5--x1-x1-x1-------0------x
    C--xxxxx-0-xxxxx-0-xxxxx-0-xxxx--x1-x1-x1------3/5--x1-x1-x1-xxxxx-0-xxxx-x…
  • Tuning: C G C F A D
    
    Riff 1:
    D----------------------
    A----------------------
    F----------------------
    C----------------------
    G-0-0-1h2-0-0-3h4-0-2h1
    C-0-0-1h2-0-0-3h4-0-2h1  x's 12
    pm. .     . .     .
    
    Riff 2:  Part A…
  • Tuning: C G C F A D
    
    Riff 1:
    D------------|------------------|-----------------------------------------
    A------------|------------------|-----------------------------------------
    F------------|------------------|-----------------------------------------
    C------------|------------------|-----------------------------------------
    G------------|-2--2--4-3-4-2--2-|-444444-33333----------44444-33333-222222
    C-9/1…
  • ||--------------------------------------------------------||
    ||--------------------------------------------------------||
    ||--------------------------------------------------------||
    ||--------------------------------------------------------||…
  • Tuning: 7-String (AEADGBE)
    
    E--------------------------------------------------------
    B--------------------------------------------------------
    G--------------------------------------------------------
    D----------------------15--------------15----------------
    A--------------------------------------------------------
    E--------------12-------------12-------------------------
    A--0----0------------------------------------------------
    
    E--------------------------------------------------------
    B--------------------------------------------------------
    G--------------------------------------------------------
    D---------------------------15--------------15-----------
    A--------------------------------------------------------
    E--0----0------12----------------12----------------------
    A--0----0------------------------------------------------
    
    E--------------------------------------------------------
    B--------------------------------------------------------
    G------------------------------------16------------------
    D----------------------------15-------------15-----------
    A--------------------------------------------------------
    E---0----0--------12-------------------------------------
    A---0----0-----------------------------------------------
    
    E--------------------------------------------------------
    B--------------------------------------------------------
    G--------------------------------------------------------
    D--------------------------------------------------------
    A--------------------------------------------------------
    E--------------------------------------------------------
    A---0-----1--------4---3----1----4-----------------------
    
    E--------------------------------------------------------
    B--------------------------------------------------------
    G--------------------------------------------------------
    D--------------------------------------------------------
    A--------------------------------------------------------
    E--0---1---------4---3----1-----4------------------------
    A--0---1---------4---3----1-----4------------------------
    
    E--------------------------------------------------------
    B--------------------------------------------------------
    G--------------------------------------------------------
    D--------------------------------------------------------
    A--------------------------------------------------------
    E---1---1---1--------1---1----1--------------------------
    A---1---1---1--------1---1----1--------------------------
    
    (WITH…
  • -------------------------------------------------------------|
    -------------------------------------------------------------|
    -------------------------------------------------------------|
    -------------------------------------------------------------|…
  • Tuning: 7-String (AEADGBE)
    
    E--------------------------------------------------------
    B--------------------------------------------------------
    G--------------------------------------------------------
    D--------------------------------------------------------
    A--------------------------------------------------------
    E--------------------------------------------------------
    A---0---1---0-----1/11-------0---1---0-----1/11-----0--1-
    
    E--------------------------------------------------------
    B--------------------------------------------------------
    G--------------------------------------------------------
    D--------------------------------------------------------
    A--------------------------------------------------------
    E--0----------------------------0------------------------
    A--0---------6---5---2--------0---6---5---1--------------
    
    E--------------------------------------------------------
    B--------------------------------------------------------
    G--------------------------------------------------------
    D--------------------------------------------------------
    A-----------------1--------------------------------------
    E-----------------1--------------------------------------
    A--0--0--0--0---1----------------------------------------
    
    E--------------------------------------------------------
    B--------------------------------------------------------
    G--------------------------------------------------------
    D--------------------------------------------------------
    A------------------------7-------------------------------
    E------------------------6-------------------------------
    A--0---1---0---1---------------0--0--0--0--0---4--4--4---
    
    E--------------------------------------------------------
    B--------------------------------------------------------
    G--------------------------------------------------------
    D--------------------------------------------------------
    A-------------------7------------------------------------
    E-------------------6------------------------------------
    A--0---1---0---1-------0--0--0--0--0---4--4--4---5--5--5-
    
    back…
  • Intro (g2)
    |------------|
    |------------|
    |------------|
    |-555--55-55-|
    |-555--55-55-|
    |-333--33-33-|
    
     Intro (g1)  here theres no 1 (ones) that are some 11 (Eleven).
    |---------------------------------------|
    |---------------------------------------|
    |---------------------------------------|
    |-111111--1111-1111-14141414^/16^161616-|
    |-111111--1111-1111-13131313^/15^151515-|
    |-111111--1111-1111---------------------|…
  • Tuning: C G C F A D
    
    Riff 1:
    D----------------------------------------------------------|-------------------------------------------
    A----------------------------------------------------------|-------------------------------------------
    F----------------------------------------------------------|-------------------------------------------
    C----------------------------------------------------------|-------------------------------------------
    G-3/2-2/3-3/1-1/2----2--------3/2-2/3-3/1-1/2-1/3/1--------|--3/2-2/3-3/2-2/3-22--3/2-2/3-3/2-2/3-1/3/1
    C-----------------00-2…
  • ------------------ or can be played -------------
    ------------------                  -------------
    ------------------                  -------------
    ------------------                  -------------
    -1---4---5---2----…
  • Palm mute this part
    ||-------------------------------------------------------------------------||
    ||-------------------------------------------------------------------------||
    ||-------------------------------------------------------------------------||
    ||-------------------------------------------------------------------------||
    ||--4-3-3-3-----4-3-3-3---4-3-3-3-----4-3--1-------------------------------||
    ||--4-3-3-3-----4-3-3-3---4-3-3-3-----4-3--1-------------------------------||
    ||--4-3-3-3-----4-3-3-3---4-3-3-3-----4-3--1-------------------------------||
    
    
    
    ||-------------------------------------------------------------------------||
    ||-------------------------------------------------------------------------||
    ||-------------------------------------------------------------------------||
    ||-------------------------------------------------------------------------||
    ||--4-3-3-3-----4-3-3-3---4-3-3-3-----4-3---1-3-4--------------------------||
    ||--4-3-3-3-----4-3-3-3---4-3-3-3-----4-3---1-3-4--------------------------||
    ||--4-3-3-3-----4-3-3-3---4-3-3-3-----4-3---1-3-4--------------------------||
    
    
    then…
  • ||--------------------------------------------------------------||
    ||--------------------------------------------------------------||
    ||--------------------------------------------------------------||
    ||--------------------------------------------------------------||
    ||--------------------------------------------------------------||
    ||--0-1----0--1-1-1---0-1---0-1-----0--1-1-0----3^b-------------||
    ||--0-1----0--1-1-1---0-1---0-1-----0--1-1-0--------------------||
    
    
    
    ||---------------------------------------------------------------------||
    ||---------------------------------------------------------------------||
    ||---------------------------------------------------------------------||
    ||---------------------------------------------------------------------||
    ||---------------------------------------------------------------------||
    ||--0-1---0--1-1-1--0-1-----0------1-----0-----1-----0-----1-----------||
    ||--0-1---0--1-1-1--0-1-----0------1-----0-----1-----0-----1-----------||
    
    
    ||---------------------------------------------------------------------||
    ||---------------------------------------------------------------------||
    ||---------------------------------------------------------------------||
    ||---------------------------------------------------------------------||
    ||---------------------------------------------------------------------||
    ||--0-1---0----1-1-1----0-1----0--1----0----1---3---4------------------||
    ||--0-1---0----1-1-1----0-1----0--1----0----1---3---4------------------||
    
    
    
    ||-----------------------------------------------------------------------||
    ||-----------------------------------------------------------------------||
    ||-----------------------------------------------------------------------||
    ||-----------------------------------------------------------------------||
    ||-----------------------------------------------------------------------||
    ||---------------------------------------------------------------3^b-----||
    ||--3--4-----3--4-4-4----3--4----3--4-----3--4-4--3----------------------||
    
    
    
    ||-------------------------------------------------------||
    ||-------------------------------------------------------||
    ||-------------------------------------------------------||
    ||-------------------------------------------------------||
    ||-------------------------------------------------------||
    ||--0--6--0------------0--6--1--0------------------------||
    ||--0--6--0------------0--6--1--0------------------------||
    
    
    
    ||----------------------------------------------------------||
    ||----------------------------------------------------------||
    ||----------------------------------------------------------||
    ||-------------------------------7-7-7---6-6-6---9-9-9------||
    ||-------------------------------6-6-6---5-5-5---8-8-8------||
    ||---0-0-0-6-0----0-0-0-0---0-------------------------------||
    ||---0-0-0-6-0----0-0-0-0---0-------------------------------||
    
    
    
    ||------------------------------------------------------||
    ||------------------------------------------------------||
    ||------------------------------------------------------||
    ||------------------------------7-7-7---6-6-6---9-9-9---||
    ||------------------------------6-6-6---5-5-5---8-8-8---||
    ||---0-0-0-6-0---0-0-0-0---0----------------------------||
    ||---0-0-0-6-0---0-0-0-0---0----------------------------||
    
    
    
    ||---------------------------------------------------------------||
    ||---------------------------------------------------------------||
    ||---------------------------------------------------------------||
    ||---------------------------------------------------------------||
    ||---------------------------------------------------------------||
    ||--0---6------0--0-0--0-0--------0---6------0-----2-2-2-3-3-3---||
    ||--0---6------0--0-0--0-0--------0---6------0-----2-2-2-3-3-3---||
    
    
    
    
    ||-------------------------------------------------------||
    ||-------------------------------------------------------||
    ||-------------------------------------------------------||
    ||--------------------------------------------7----------||
    ||-------------------------------------------------------||
    ||--0-----6-----0---------0----6----1--0------5----------||
    ||--0-----6-----0---------0----6----1--0-----------------||
    
    
    
    
    ||------------------------------------------------------------------||
    ||------------------------------------------------------------------||
    ||------------------------------------------------------------------||
    ||------------------------------------------------------------------||
    ||------------------------------------------------------------------||
    ||-1--1------0h1p0--0---------------1h3-------0h1p0--0--------------||
    ||-1--1------0h1p0--0---------------1h3-------0h1p0--0--------------||
    
    
    
    ||------------------------------||
    ||------------------------------||
    ||------------------------------||
    ||------------------------------||
    ||------------------------------||
    ||---0-0-0--0--0-0-0------------||
    ||---0-0-0--0--0-0-0------------||
    
    
    
    ||----9-------------------------------------------------||
    ||---13-------------------------------------------------||
    ||------------------------------------------------------||
    ||------------------------------------------------------||
    ||------------------------------------------------------||
    ||----------0h1p0-0----0-0-0-0-----0--1p0-1h3-----------||
    ||----------0h1p0-0----0-0-0-0-----0--1p0-1h3-----------||
    
    
    ||----------------------------7-------7-------7-------7-----||
    ||----------------------------11------11------11------11----||
    ||----------------------------------------------------------||
    ||--7-7-7-7--6-6-6-6----------------------------------------||
    ||----------------------------------------------------------||
    ||--5-5-5-5--6-6-6-6----------------------------------------||
    ||----------------------------------------------------------||…
  • ||-----------7----7---7-------------------------------------||
    ||----------11--11--11--------------------------------------||
    ||----------------------------------------------------------||
    ||----------------------------------------------------------||
    ||----------------------------------------------------------||
    ||-0-0-0----------------------------------------------------||
    ||-0-0-0----------------------------------------------------||
    
    
    
    ||-----------7----7---7----------------7-----------7--------||
    ||----------11--11--11-------------11----11--------11-------||
    ||----------------------------------------------------------||
    ||----------------------------------------------------------||
    ||----------------------------------------------------------||
    ||-0-0-0-------------------0-0-0----------------------------||
    ||-0-0-0-------------------0-0-0----------------------------||
    
    
    
    
    ||-------------------------------------------------||
    ||-------------------------------------------------||
    ||-------------------------------------------------||
    ||-------------------------------------------------||
    ||-------------------------------------------------||
    ||-------------------------------------------------||
    ||-0-1-0-3-4-3-----0-1-0-3-4-3-----0-1-0-1---------||
    
    
    
    ||-----------------------------------------------------||
    ||-----------------------------------------------------||
    ||-----------------------------------------------------||
    ||-----------------------------------------------------||
    ||-----------------------------------------------------||
    ||-0-1-0-3-4-3-----0-1-0-3-4-3----0-1-0-1--------------||
    ||-0-1-0-3-4-3-----0-1-0-3-4-3----0-1-0-1--------------||
    
    
    ||-----------------------------------------------------------------------||
    ||-----------------------------------------------------------------------||
    ||-----------------------------------------------------------------------||
    ||------------5----------------------------------------------------------||
    ||-----------------------------------------------------------------------||
    ||---0--------3-------------4--------…
  • Done on a 7 string
    intro
    
    
    guitar1
    ||--------------------------------------------------------
    ||--------------------------------------------------------
    ||--------------------------------------------------------
    ||--------------------------------------------------------…
  • Tuning: C G C F A D
    
    Riff 1:    Part A                    Part B              Part C
    D-----------------------------|---------------------|---------------
    A-----------------------------|---------------------|---------------
    F-----------------------------|---------------------|-11111111-2-3-4
    C-1h0-1h0-2-3…
  • Tuning - C G C F A D
    
    Intro - after some feedback
    
    Riff A
    repeat a few times (listen to track)
    D----------------------------------------------------
    A----------------------------------------------------
    F----------------------------------------------------
    C----------------------------------------------------
    G-0--4--3------0--4--2-----0--4--3------0--4--2------
    C-0--4--3------0--4--2-----0--4--3------0--4--2------
    
    
    
    In…
  • Intro
       3x                                     last time
    ------------------------|----------------|------------------------------|
    ------------------------|----------------|------------------------------|
    ------------------------|----------------|------------------------------|
    ---5---2---0---2--------|--5---6---7-----|-5hold------------------------|
    ---5---2---0---2--------|--5---6---7-----|-5----------------------------|
    ------------------0--0--|----------------|------------------------------|
    
    
    Verse
    
    --------------------|------------------|
    ---8----------------|------------------|
    ---7---97----------|---4---7/9--------|
    ---5---97--hold----|---4---7/9--------|
    -------75----------|-------5/7--------|
    --------------------|------------------|
    
    Bridge…
  • ||-------------------------------------------------------------------||
    ||-------------------------------------------------------------------||
    ||-------------------------------------------------------------------||
    ||-------------------------------------------------------------------||…
  • ||--------------------------------------------------------||
    ||--------------------------------------------------------||
    ||--------------------------------------------------------||
    ||--(19)--------------------------------------------------||…
  • 6-string guitar tuned to B
    
    ||------------------------------------------------------||
    ||------------------------------------------------------||
    ||------------------------------------------------------||
    ||------------------------------------------------------||
    ||------------------------------------------------------||
    ||---4-3-3--4-3-3---3------3---4-3-3--4-3-3-------------||
    ||---4-3-3--4-3-3------3---3---4-3-3--4-3-3-------------||
    
    ||-----------------------------------------------||
    ||-----------------------------------------------||
    ||-----------------------------------------------||
    ||-----------------------------------------------||
    ||---------------------------------------1-------||
    ||---------------------------------------1-------||
    ||-0-1-3---0---4-3-1-0----1-3-0------1-----------||
    
    ||----------------------------------------------------------------||
    ||----------------------------------------------------------------||
    ||----------------------------------------------------------------||
    ||----7--------------------------7--------------------------------||
    ||----6----------------------6--------6-----------5/6-------------||
    ||----5----------------5------------------5-------4/5-------------||
    ||----------------------------------------------------------------||
    
    
    ||-----------------------------------------------------------------||
    ||-----------------------------------------------------------------||
    ||-----------------------------------------------------------------||
    ||-----------------------------------------------------------------||
    ||------------------------------------------------------------1----||
    ||------------------------------------------------------------1----||
    ||--xxxxxxxxxx----0----2-2---0----2---0-----2----0----2-3--1-------||
    
    ||------------------------------------------------||
    ||------------------------------------------------||
    ||------------------------------------------------||
    ||------------------------------------------------||
    ||---------------------------------11//---------||
    ||------------------------------------------------||
    ||-0-2-2---0-2--0-2---0-0-0-----------------------||
    
    
    repeat…
  • Tuning: C G C F A D
    
    All the riffs are in order. Just figure out the # of times to play each one.
    
    
    Intro/verse (bend the pinch harmonic twice)
    |-------------------------------------------------------------------|
    |-------------------------------------------------------------------|
    |-------------------------------------------------------------------|
    |-------------------------------------------------------------------|
    |------5p4--------5p4--------5p4--------5p4--------5p4---------(4^)-|
    |-0000-----000000-----000000-----000000-----000000-----000000-------|
    PM----…
  • Intro:         
    D|--------------------|     |-------------------|
    A|--------------------|     |-------------------|
    F|--------------------|(7x) |-------------------|
    C|--------------------|then |-------------------|
    G|80001p000-01p0001/3-|…
  • Tuning: C G C F A D
    
    Riff 1:
    D---------------------------------------------
    A---------------------------------------------
    F---------------------------------------------
    C---------------------------------------------
    G-0-0-0----3-2----7-6----5-4-5---------------0
    C-0-0-0-00-3-2-00-7-6-00-5-4-5-00--…
  • ||----------------------------------------------------------||
    ||----------------------------------------------------------||
    ||----------------------------------------------------------||
    ||-0--------------------------------------------------------||
    ||-0-----------3b*--------------1--/--6--/--3---------------||
    ||-0-----0-0---------0-0-0-0----1--/--6--/--3---------------||
    
    
    ||----------------------------------------------------------||
    ||----------------------------------------------------------||
    ||----------------------------------------------------------||
    ||-0--------------------------------------------------------||
    ||-0-----------3b*--------------1--/--4--/--1---------------||
    ||-0-----0-0---------0-0-0-0----1--/--4--/--1---------------||
    
    
    ||----------------------------------------------------------||
    ||----------------------------------------------------------||
    ||----------------------------------------------------------||
    ||----------------------------------------------------------||
    ||----0---0---0---0---0---0---0---0-------------------------||
    ||----0---0---0---0---0---0---0---0-------------------------||
    
    
    ||------------------------------------------------------------------------||
    ||------------------------------------------------------------------------||
    ||------------------------------------------------------------------------||
    ||------------------------------------------------------------------------||
    ||--------------------------------------------------------------3b*-------||
    ||---0-----0--0----0--0-0-----7-6-0--7-6-0--7-6-0-------------------------||
    
    
    ||------------------------------------------------------------------------------------------||
    ||------------------------------------------------------------------------------------------||
    ||-------------------------------------------------------------7-----7-7-----5/7----7-------||
    ||------------------------------------------------------------------------------------------||
    ||---6-----------------------3------------------------0--------5-----5-5-----3/5----5-------||
    ||---6-----------------------3------------------------0-------------------------------------||
    
    ||-------------------------------------------------------------------------||
    ||-------------------------------------------------------------------------||
    ||-------------------------------------------------------------------------||
    ||--------------------------5----------------------------------------------||
    ||--6-----------------------3------------------------0---------------------||
    ||--6------------------------------------------------0---------------------||
    
    
    ||-------------------------------------------------------------------------||
    ||-------------------------------------------------------------------------||
    ||-------------------2---------2-----2h3p2---------------------------------||…
  • -------------------------------------------------------------
    -------------------------------------------------------------
    -------------------------------------------------------------
    -------------------------------------------------------------
    -------------------------------------------------------------
    -------------------------------------------------------------
    --2--2--2--2--2--2--2--2----1-1-1----2-2----1-1-1------------
    
    
    ----------------------------19-------------------------------
    -------------------------------------------------------------
    -------------------------------------------------------------
    -------------------------------------------------------------…
  • Riff 1
    |--------------------------------------------------------
    |--------------------------------------------------------
    |--------------------------------------------------------
    |---------8-9-8---8-7---7-6-----------8-9-8---8-7---7-6--
    |-------7-------9-----8-------------7-------9-----8------
    |-0-0-0-----------------------0-0-0----------------------…
  • ||---------------------------------------------------------------------------||
    ||---------------------------------------------------------------------------||
    ||---------------------------------------------------------------------------||
    ||---------------------------------------------------------------------------||
    ||---------------------------------------------------------------------------||
    ||--0--12--13------0--10--12---repeat…
  • Palm mute second part
    ||-----------------------------------------------------------||
    ||-----------------------------------------------------------||
    ||-----------------------------------------------------------||
    ||-2-2------2-2----------------------------------------------||
    ||-1-1------1-1----------------------------------------------||
    ||--------------------0----4-3-0----1-1--2-2-----------------||
    ||--------0-----------0----4-3-0----1-1--2-2-----------------||
    
    
    
    ||------------------------------------------------------------||
    ||------------------------------------------------------------||
    ||------------------------------------------------------------||
    ||-2-2-------2--2---------------------------------------------||
    ||-1-1-------1--1------------5*-------------------------------||
    ||-----------------------------------5*-------5*--------------||
    ||--------0---------0-0-0--------------5*---------------------||
    
    
    
    ||----------------------------------------------------||
    ||---------------------------------9------------------||
    ||----------------------------------------------------||
    ||-2-2------2--2----------------7---------------------||
    ||-1-1------1--1--------------------------------------||
    ||----------------------------------------------------||
    ||--------0---------0-0-0-----------------------------||
    
    
    
    ||-------------------------------------------------------------------||
    ||-------------------------------------------------------------------||
    ||-------------------------------------------------------------------||
    ||-------------------------------------------------------------------||
    ||-------------------------------------------------------------------||
    ||--0-0---2-1---0-1-0------------4-----------0-0-3-2-----------------||
    ||--0-0---2-1---0-1-0--0-0-0---------6-5-----0-0-3-2---/////////-----||
    
    
    ||------------------------------------------------------------------------------||
    ||------------------------------------------------------------------------------||
    ||------------------------------------------------------------------------------||
    ||------------------------------------------------------------------------------||
    ||------------------------------------------------------------------------------||
    ||--0-0--2-1--0-1-0--------------4----------0-0-3-2--0-1---1-0---0---0----------||
    ||--0-0--2-1--0-1-0--0-0-0----------6-5-----0-0-3-2--0-1---1-0---0---0----------||
    
    
    
    
    ||-----------------------------7----------------------------7--------------||
    ||-----------------------------11---------------------------11-------------||
    ||-------------------------------------------------------------------------||
    ||-------------------------------------------------------------------------||
    ||-------------------------------------------------------------------------||
    ||-------------------------------------------------------------------------||
    ||----0-0-0-0--0-0-0-0-------------0-0-0-0-0-0-0---------------------------||
    
    
    
    ||-------------------------------------------------------------------------||
    ||-------------------------------------------------------------------------||
    ||-------------------------------------------------------------------------||
    ||-------------------------------------------------------------------------||
    ||--10----------------------1--------------------------0-------------------||
    ||--10----------------------1--------------------------0-------------------||
    ||--10----------------------1--------------------------0-------------------||
    
    
    
    ||--------------------------------------------------------------------------||
    ||--------------------------------------------------------------------------||
    ||--------------------------------------------------------------------------||
    ||--------------------------------------------------------------------------||
    ||--------------------------------------------------------------------------||
    ||----------------------------------------------3^b--3^b--------------------||
    ||---0-2-1--0-2-1--0-2-1--0-2-1-0-------------------------------------------||
    
    
    
    
    
    ||--------------------------------------------------------------------------||
    ||--------------------------------------------------------------------------||
    ||--------------------------------------------------------------------------||
    ||--------------------------------------------------------------------------||
    ||--------------------------------------------------------------------------||…
Наверх