Аккорды «Chixdiggit!»

Chixdiggit!
Chixdiggit! - канадская панк-четвёрка, родом из городка Калгари. Три школьника, K.J. Jansen, Mark O'Flaherty и Mike Eggermont, настолько хотели покорить одноклассниц, что собрали группу ещё в 1990 году, несмотря на то, что дебютный альбом вышел только в 1996. Причем первое время было только название, которое парни рисовали на футболках и даже пытались продавать. По их словам, "Chixdiggit это хэви-металл вариант фразы Chicks Dig It". Футболки почему-то стали пользоваться успехом, и денег с продажи… Читать полностью... Chixdiggit! - канадская панк-четвёрка, родом из городка Калгари. Три школьника, K.J. Jansen, Mark O'Flaherty и Mike Eggermont, настолько хотели покорить одноклассниц, что собрали группу ещё в 1990 году, несмотря на то, что дебютный альбом вышел только в 1996. Причем первое время было только название, которое парни рисовали на футболках и даже пытались продавать. По их словам, "Chixdiggit это хэви-металл вариант фразы Chicks Dig It". Футболки почему-то стали пользоваться успехом, и денег с продажи хватило на инструменты, которые чувакам предстояло взять в руки впервые (кроме Марка, который владел классической гитарой). Майк взял басс, а Кей Джей передумал быть барабанщиком, стал гитаристом и даже запел. В '91 группа впервые начала репетировать, а в '92 отыграла первое шоу. С 1993 Chixdiggit! начинают регулярно терроризировать тремя аккордами всех цыпочек из Калгари и его пригородов. В 1996 чуваки выпускают свой дебютный альбом "Chixdiggit!" на Sub Pop Records, откуда быстро смываются. Группа совершенно не жалела об этом, да и компания, по словам Майка, тоже не была от них в восторге. Парней подбирают добрые Fat Wreck Chords и помогают им прокатиться по миру в поисках новых фанаток. После "From Scene to Shining Scene" (2000) группа делает перерыв, чтобы вернуться с новым альбомом "Pink Razors", который вышел 19 апреля 2005. За это время Chixdiggit! успели не только лишиться бассиста, но и сменить ударника Dave Alcock на Jason Hirsch. В 2007 году чуваки решают перезаписать все старые песни о девушках, а точнее альбом "Chixdiggit!", и после долгих раздумий называют его "Chixdiggit! II". Сейчас Chixdiggit! это: KJ Jansen - guitar, vocals Mark O'Flaherty - guitar, vocals Mike McLeod - bass, vocals Jason Hirsch - drums Скрыть...
Популярные аккорды Chixdiggit!:
алфавиту | просмотрам | случайно
  • Chords:
    
       G   C   E   D
    e|---|---|---|---|
    B|---|---|---|---|
    G|---|-5-|---|-7-|
    D|-5-|-5-|-2-|-7-|
    A|-5-|-3-|-2-|-5-|
    E|-3-|---|-0-|---|
    
    
    Intro: G, C, E, G, D
    
    
    G                                         C
    I get turned…
  • intro: 3x
    e|------------------|
    B|------------------|
    G|------------------|
    D|---7---7---7------|
    A|---5-7-5-7-5-7-9--|
    E|-----5---5---5-7--|
         D A D A D A B
    
    
    verse 1: (all verses are same as verse 1)
    B
    in the branch…
  • Chords
    e|--------------------|
    B|--------------------| 
    G|---------------5--6-|
    D|-3--4---5--6---5--6-|
    A|-3--4---5--6---3--4-|
    E|-1--2---3--4--------|
       F  F#  G  G#  C  C#  
    
    
    [Verse 1]
       F…
  • Chords:
    
    D   G   A
    e|-------------|
    B|-------------|
    G|--5----------|
    D|--5---5---5--|
    A|--7---5---5--|
    E|------3---7--|
    
    
    D                                            G                  A
    great teeth, great legs, great…
  • Intro
    G-------------------------------------------------------
    D-------------------------------------------------------
    A---------3-3-3-3---------3-3-3-3---------3-3-3-3-7-5-3- x2
    E-3-3-3-3---------3-3-3-3---------3-3-3-3---------------
    
    
    Verse…
  • intro / chorus
    e|----------------------------|
    B|----------------------------|
    G|----------------------------|
    D|--8/999-8/999-6/999--9-8----|
    A|--8/999-8/999-6/999--7-6----|
    E|--6/777-6/777-6/777---------|
        Bb/B  Bb/B…
  • Intro
    G-----------------------------------------------------------------
    D-----------------------------------------------------------------
    A--3-3-3-3-3-3-3-3------------------------------------------------
    E-----------------1-1-1-1-1-1-1-1-3-3-3-3-3-3-3-3-1-1-1-1-1-1-1-1-
    
    
    Verse
    G-----------------------------------------------------------------
    D-----------------------------------------------------------------
    A-3-3-3-3-3-3-3-3-------------------------------------------------
    E-----------------3-3-3-3-3-3-3-3-1-1-1-1-1-1-1-1-3-3-3-3-3-3-3-3-
    
    
    Prechorus
    G-----------------------------------------------------------------
    D-----------------------------------------------------------------
    A---------------------------------0-0-0-0-0-0-0-0-----------------
    E-1-1-1-1-1-1-1-1-3-3-3-3-3-3-3-3-----------------1-1-1-1-1-1-1-1-
    
    
    cont'd
    G---------------------------------
    D---------------------------------
    A---------------------------------
    E-1-1-1-1-1-1-1-1-3-3-3-3-3-3-3-3-
    
    
    Chorus
    G-----------------------------------------------------------------
    D-----------------------------------------------------------------
    A--3-3-3-3-3-3-3-3------------------------------------------------
    E-----------------1-1-1-1-1-1-1-1-3-3-3-3-3-3-3-3-1-1-1-1-1-1-1-1-…
  • [Chords]:
    
     e|--------------------|
     B|--------------------|
     G|-------------4---5--|
     D|-3---4---5---4---5--|
     A|-3---4---5---2---3--|
     E|-1---2---3----------|
        F   F#  G   B   C 
    
    
    [Intro]:  F#,B F#,B F#,B F#,B  G,C…
  • intro: 2x
    e|------------------|
    B|------------------|
    G|------------------|
    D|--66--88--44--66--|
    A|--44--88--44--66--|
    E|------66--22--44--|
        C#  A#  F#  G#
    
    
    verse:
    e|----------------------------------------------|
    B|----------------------------------------------|
    G|----------------------------------------------|
    D|--666666--44444-6666/5--666666----------------|
    A|--444444--44444-4444/3--444444--44444--66666--|
    E|----------22222-----------------22222--44444--|…
  • Intro and Chorus:
    
    e|----------------------------|
    B|----------------------------|
    G|----------------------------|
    D|-4---6--6--6--6--6--6--6--6-|
    A|-4---6--6--6--6--6--6--6--6-|
    E|-2---4--4--4--4--4--4--4--4-|
    
    
    Verse:
    
    e|---------------------------------------------------------
    B|---------------------------------------------------------
    G|-6-6-6-6-6-6-6-6-6-6-6-6---------------------------------
    D|-6-6-6-6-6-6-6-6-6-6-6-6--4-4-4-4-4-4-4-3-4-4-4-4-4-4----
    A|-4-4-4-4-4-4-4-4-4-4-4-4--4-4-4-4-4-4-4-3-4-4-4-4-4-4----
    E|--------------------------2-2-2-2-2-2-2-1-2-2-2-2-2-2----
    
    
    Continued...
    --------------------------------------------------------|
    --------------------------------------------------------|
    -6-6-6-6-6-6-6-6-6-6-6-6--------------------------------|
    -6-6-6-6-6-6-6-6-6-6-6-6--6-6-6-6-6-6-6-5-6-6-6-6-6-6-6-|
    -4-4-4-4-4-4-4-4-4-4-4-4--6-6-6-6-6-6-6-5-6-6-6-6-6-6-6-|
    --------------------------4-4-4-4-4-4-4-3-4-4-4-4-4-4-4-|
    
    
    Solo:
    
    e|----------------------------------------------------------9----
    B|---------------9-----------------------------9-9-11-9-9-11-----
    G|-----------8s10-10-8-6-3---3-------6-8-6-8s10------------------
    D|----------6--------------4---4--2------------------------------
    A|-4-6-4-6s8------------------------4----------------------------
    E|---------------------------------------------------------------
    
    
    Continued...
    ------------------------------------------------9------9---------
    -9-9-9-9-7----11b12-11b12-9-11b12-11b12-9--9h11---9h11-----------
    -8-8-8-8---8--11b12-11b12---11b12-11b12--------------------------
    -----------------------------------------------------------------
    -----------------------------------------------------------------
    -----------------------------------------------------------------
    
    
    Continued...
    ------12-9-----------------------|
    -9h11------11-9-------6-6--------|
    ----------------11-9--6-6-4h6p4--|
    ----------------------6-6--------|
    ---------------------------------|
    ---------------------------------|…
  • Intro
    |G|------------------------|
    |D|------------------------|
    |A|--0--3--5~---0--3--5~---|
    |E|------------------------|
    
    
    Verse
    |G|-------------------------------------------------------|-----------|
    |D|*-----------------------------------------------------*|-----------|
    |A|*-------------------5-5-5-5-5-5-5--7-7-7-7-7-7-7-7-7--*|-5--7------|
    |E|--5-5-5-5-5-5-5-5-5------------------------------------|-------5---|
    
    
    Chorus…
  • Riff A: (once)
    A--3-33-2-3--
    E------------
    
    
    Riff B: (once)
    A--3--3--3--3-----------3333-------
    E-------------1111-3333------1111--
    
    
    Riff C: (once)
    A------------3-33-1--3--
    E--1111-3333------------
    
    
    Riff B: (once)
    Riff…
Наверх