Аккорды «Choking Victim»

Choking Victim
Choking Victim - это американская хардкор панк / скакор команда сформированная в Нью Йорке и просуществовавшая с 1992 по 1999 год. Их музыка состояла из злого хардкор панка, ска без духовых инструментов и метала, завершала эту адско привлекательную смесь - бескомпромиссная анархо лирика, своё творчество они нарекли, как - Crack Rock Steady, дав жизнь новому музыкальному направлению. Распалась группа в день выпуска своего единственного полноформатного альбома "No Gods, No Managers". Позже вокалист… Читать полностью... Choking Victim - это американская хардкор панк / скакор команда сформированная в Нью Йорке и просуществовавшая с 1992 по 1999 год. Их музыка состояла из злого хардкор панка, ска без духовых инструментов и метала, завершала эту адско привлекательную смесь - бескомпромиссная анархо лирика, своё творчество они нарекли, как - Crack Rock Steady, дав жизнь новому музыкальному направлению. Распалась группа в день выпуска своего единственного полноформатного альбома "No Gods, No Managers". Позже вокалист Stza и гитарист Ezra собрали новую Crack Rock Steady банду - Leftover Crack. Скрыть...
Популярные аккорды Choking Victim:
алфавиту | просмотрам | случайно
  • Guitar 1 Intro
    e-------------------12----
    b-9-9-10-9-9-12-9-9---9-9- x4
    g-------------------------
    d-------------------------
    a-------------------------
    E-------------------------
    
    e-----------------12-
    b--9-----10---h12----
    g--------------------
    d--------------------
    a--------------------
    E--------------------
    
    
    Verse…
  • Riff1
    (ska beat listen to the song to find out the rhyme)
    e|-6-5--|
    B|-6-6--|
    G|-7-7--|
    D|-8----|
    A|------|
    E|------|
    
    
    riff 2
    (distortion...to...ska.......)
    e|-----------------55x5x5x5x5-|
    B|-----------------66x6x6x6x6-|
    G|-----------8-8-7-77x7x7x7x7-|
    D|-6-6666666-8-8-7------------|
    A|-6-6666666-6-6-5------------|
    E|-4-4444444------------------|
    
    
    riff3
    e|-------------------------|
    B|-------------------------|
    G|-----------8-8-7---------|
    D|-6-6666666-8-8-7-(pause)-|
    A|-6-6666666-6-6-5---------|
    E|-4-4444444---------------|
    
    
    solo…
  • Intro  
    
      Guitar 1. play once than
    e|-----------------|   e|--------------------------------------------|
    b|-----------------|   b|--------------------------------------------|
    G|-44--44--44--44--|   G|-4----3344444444334444444433446688899/11----|
    D|-44--44--44--44--|…
  • Verse
    e|--3-3-3--5-5--3-3-3-3--------------------------
    B|--5-5-5--7-7--3-3-3-3--------------------------
    G|--5-5-5--7-7--4-4-4-4--------------------------
    D|--------------5-5-5-5--------------------------
    A|-----------------------------------------------
    E|-----------------------------------------------
    
    
    Chorus
    e|----------------------------------------------------------------------
    B|----------------------------------------------------------------------
    G|--5-5-5-5-7-7-7-7-----------------------------------------------------
    D|--5-5-5-5-7-7-7-7-5-5-5-5-5-5-5-5-------------------------------------
    A|--3-3-3-3-5-5-5-5-5-5-5-5-5-5-5-5-------------------------------------
    E|------------------3-3-3-3-3-3-3-3-------------------------------------…
  • Intro/Bridge 
    
    G:--------------------------------------------------------------- 
    D:--------------------------------------------------------------- 
    A:-------5555555-7777777------------------------------------------ 
    E:5555555---------------7777777-----------------------------------…
  • Intro/Verse/Chorus:
    G:----------------------------------------------------
    D:--------------47-47-47-47---------------------------
    A:-47-47-47-47-5--5--5--5---47-47-47-47---------------
    E:5--5--5--5---------------5--5--5--5--047-047-047-047…
  • >=8 times
    
    main part
    G|----------------------------------------------
    D|------------5555----------------3333----------
    A|-------5555------3333------5555------5555-----
    E|--3333----------------3333--------------------
    
    
    slower…
  • G:---------------------------------------------------------------
    D:---------------------------------------------------------------
    A:---------------7777----------------------55 55--------------------------
    E:---5555--------------------7777----------------------------------------…
  • Intro:
    G:-----------------
    D:-----------------
    A:---9---6---2---4- 
    E:-7---4---0---2---
    
    
    Verse:
    G:--------------------------------
    D:--------------------------------
    A:----9999----6666----2222----4444
    E:7777----4444----0000----2222----
    
    
    Chorus:
    G:--------------------------------
    D:--------------------------------
    A:--------------------------------
    E:44444444222222224444444422222222…
  • Intro: Pick fast and hard. 
    G:------------------------------------------------ 
    D:------------------------------------------------ 
    A:---44-444-455-554-2-00-000-022-222-2------------ 
    E:------------------------------------------------…
  • intro: 
    e|------------------------------------------------------------------------| 
    B|----11---11---11---11---11---11-----------------------------------------| 
    G|--8----8----8----8----8----8-----7777---play 6x then end…
  • Intro/Verse
    G|--------------------------------------------------
    D|------------4--7--9--7--5-------------------------
    A|----4--7--5---------------7--5--4-----------------
    E|--5-------------------------------7---------------
    
    
    Chorus
    G|------------------------------------------------------
    D|------------------------------------------------------
    A|--------------3(hold)-----------------44444444--------
    E|--4(hold)----------------1(hold)----------------------
    
    
    Bridge
    G|--------------------------------------------
    D|--------------------------------------------
    A|----------4444------------6666--------------
    E|---4444----------6666-----------------------
    
    
    Outro
    G|-------------------------------------------------
    D|-------------------------------------------------
    A|----4-------3-------1-------0--------------------
    E|------------------------------------4------------…
Наверх