Аккорды «Chuck Berry»

Chuck Berry
Чак Бе́рри (англ. Chuck Berry; полное имя — Чарльз Э́двард А́ндерсон Бе́рри; 18 октября 1926) — американский певец, композитор, один из родоначальников рок-н-ролла. Известная и влиятельная личность в рок-музыке. Одним из первых начал исполнять рок-н-ролл ещё в 1953 году. 1926—1955 Чак Берри родился в многодетной негритянской семье среднего класса (отец был подрядчиком и диаконом баптистской церкви, мать — директором школы) и с детства увлекался музыкой. После окончания школы, в течение 10… Читать полностью... Чак Бе́рри (англ. Chuck Berry; полное имя — Чарльз Э́двард А́ндерсон Бе́рри; 18 октября 1926) — американский певец, композитор, один из родоначальников рок-н-ролла. Известная и влиятельная личность в рок-музыке. Одним из первых начал исполнять рок-н-ролл ещё в 1953 году. 1926—1955 Чак Берри родился в многодетной негритянской семье среднего класса (отец был подрядчиком и диаконом баптистской церкви, мать — директором школы) и с детства увлекался музыкой. После окончания школы, в течение 10 лет, выступал по клубам, играя блюзы. Именно в одном из них, в Сент-Луисе, он стал исполнять кантри, окрашенное блюзовыми приёмами. Это новаторское смешение стилей (каждому из которых была присуща своя аудитория, разделённая по расовому признаку) принесло ему местную известность. В мае 1955 года Берри, по совету Мадди Уотерса, вышел на Леонарда Чесса, владельца блюзового лейбла Chess Records. Тот заинтересовался гитаристом, причём именно его экспериментами с кантри, нежели его блюзом, к удивлению самого Берри. 21 мая в студии фирмы был записан первый сингл Чака Берри, «Maybellene», сочетавший напор ритм-энд-блюза и стилистику кантри. Сингл занял 1-е место в американском хит-параде категории ритм-энд-блюза. 1955—1963 Нашедший окончательно свой стиль, Берри стал выпускать один за другим хит-синглы, ставшие классикой рок-музыки: «Thirty Days» (1955), «Roll Over Beethoven» (1956), «Brown Eyed Handsome Man» (1956), «Rock’n’Roll Music» (1957), «Sweet Little Sixteen» (1958), «Johnny B. Goode» (1958) и другие. Берри как автор выделялся среди фигур раннего рок-н-ролла: тексты его песен были своего рода небольшими историями, полными неожиданных оборотов и иронии, не зря он был наречён «поэтом рок-н-ролла». С 1958 года стали выходить и долгоиграющие пластинки певца; в них основное место занимали блюзы. Берри активно гастролировал и также принял участие в съёмках двух рок-н-ролльных художественых фильмов — «Rock, Rock, Rock» (1956) и «Go, Johnny, Go» (1959). В самом конце 1959 года, Берри оказался вовлечённым в судебное разбирательство, связанное с бывшей гардеробщицей его сент-луисского клуба, которая занималась проституцией. По итогу дела, Берри был оштрафован на 5000 долларов и приговорён к 5 годам тюремного заключения. Берри отсидел срок короче, тем не менее, проведя в тюрьме три года. 1963—1975 Прерванная карьера Берри неожиданно взяла реванш в лице «британского вторжения» середины 1960-х гг. Кавер-версии песен Берри делали почти все новые британские группы, включая The Beatles, The Rolling Stones, The Kinks, The Animals, The Yardbirds и проч. На этой волне Берри вновь стал записывать рок-н-ролл, записав такие известные композиции как «No Particular Place To Go», «You Never Can Tell» (эта песня приобрела вторую жизнь благодаря сцене фильма «Бульварное чтиво») и «Promised Land». После чего, в 1966 году, певец перешёл на Mercury Records, на котором перезаписал свои хиты и выпустил несколько новых альбомов. Переход на новый лейбл ознаменовал новые нюансы в творчестве Берри: певец привнёс элементы психоделии в свои выступления. В 1970 году Берри вернулся на Chess, но опять покинул лейбл через пять лет. В этот период он выпустил несколько синглов, один из которых — «My Ding-A-Ling» (1972) — парадоксальным образом впервые принёс Чаку Берри 1-е место в национальном хит-параде США, несмотря на то, что это была полушуточная концертная кавер-версия. 1975 — С момента ухода с Chess, Берри окончательно переключился на концертную деятельность, изъездив с гастролями весь мир (в Россию Берри приезжал несколько раз). Певец до сих пор еженедельно выступает по средам в своём клубе «Blueberry Hill» в Сент-Луисе и эпизодически выезжает в турне. Интересные факты У Чака Берри были не раз крупные проблемы с законом. Первый раз он был арестован за угон машины в подростковом возрасте. Затем громкий скандал 1959 года (см. выше), который почти погубил карьеру певца (Берри в итоге отсидел 3 года в тюрьме). В 1979 году против Берри было заведено новое уголовное дело за неуплату налогов. Приговор: 4 месяца тюрьмы и 1000 часов общественно-принудительных работ. В 1990 году разразился более неприличный скандал: на Берри подали в суд несколько женщин, обвинявших певца в установке тайных камер наблюдения в женских уборных его собственного клуба. Дело было решено не доводить до судебного разбирательства (предположительно Берри выплатил 1,2 млн долларов истцам). Существует байка, что Берри было достаточно брать с собой на гастроли свой «Gibson», — аккомпанирующий ансабль, знакомый с его песнями, по его убеждению он мог найти в любом городе, где играл. Кроме того, набранные им музыканты зачастую не получали программы выступления, так как предполагалось, что они должны сами определять, какую песню начинает играть Берри. Среди аккомпаниаторов Берри одно время был Брюс Спрингстин. Песня The Beatles «Back In The USSR» (1968) была одновременно пародией на песню Берри «Back In The USA» (1959) и пастишем на стиль The Beach Boys, успех карьеры которых, в свою очередь, был обязан их синглу «Surfin' USA» (1962), целиком снятую с «Sweet Little Sixteen» Берри (1958; изменены лишь слова). В фильме «Назад в будущее» по сценарию главный герой Марти Макфлай исполняет на бале «Johnny B. Goode». В это время солист группы Марвин Берри звонит кузену Чаку и даёт послушать выступление, давая тем самым идею звука самому Берри. Дискография Синглы Указаны только оригинальные американские синглы (переиздания исключены). Год Название 1955 Maybellene / Wee Wee Hours 1955 Thirty Days / Together 1955 No Money Down / Down Bound Train 1956 Roll Over Beethoven / Drifting Heart 1956 Brown Eyed Handsome Man / Too Much Monkey Business 1956 You Can't Catch Me / Havana Moon 1957 School Day / Deep Feeling 1957 Oh Baby Doll / Lajaunda 1957 Rock And Roll Music / Blue Feeling 1958 Sweet Little Sixteen / Reelin’ and Rockin’ 1958 Johnny B. Goode / Around And Around 1958 Beautiful Delilah / Vacation Time 1958 Carol / Hey Pedro 1958 Sweet Little Rock And Roller / Jo Jo Gunne 1958 Merry Christmas Baby / Run Rudolph Run 1959 Anthony Boy 1959 Almost Grown / Little Queenie 1959 Back In The USA / Memphis, Tennessee 1959 Broken Arrow 1960 Too Pooped To Pop / Let It Rock 1960 Bye Bye Johnny / Worried Life Blues 1960 I Got To Find My Baby / Mad Lad 1960 Jaguar and Thunderbird / Our Little Rendezvous 1961 Come On / Go Go Go 1963 Diploma For Two 1964 Nadine (Is It You?) / Orangutang 1964 No Particular Place To Go / You Two 1964 You Never Can Tell / Brenda Lee 1964 Little Marie / Go, Bobby Soxer 1964 Promised Land / The Things I Used To Do 1965 Dear Dad / Lonely School Days 1965 It Wasn't Me / Welcome Back Pretty Baby 1966 Ramona Say Yes 1967 Laugh and Cry 1967 Back to Memphis 1967 Feelin' It 1967 Back In The USA / Roll Over Beethoven 1968 Louie to Frisco / Ma Dear 1969 Good Looking Woman 1970 Tulane 1972 My Ding-A-Ling (live) / Let’s Boogie 1972 Reelin' and Rockin' (live) / Johnny B. Goode 1973 Bio 1975 Shake, Rattle And Roll 1979 California Альбомы Указаны только американские официальные студийные и концертные альбомы; сборники исключены. Год Название 1958 After School Session 1958 One Dozen Berrys 1959 Chuck Berry Is On Top 1960 Rockin' At The Hops 1961 New Juke-Box Hits 1963 Chuck Berry On Stage 1964 Two Great Guitars 1964 St. Louis To Liverpool 1965 Chuck Berry In London 1966 Fresh Berry's 1967 Chuck Berry's Golden Hits 1967 Chuck Berry In Memphis 1967 Live At The Fillmore Auditorium 1968 From St. Louie To Frisco 1969 Concerto in B. Goode 1970 Back Home 1971 San Francisco Dues 1972 The London Chuck Berry Sessions 1973 Bio 1973 Sweet Little Rock And Roller 1974 Wild Berrys 1974 Flashback 1974 Chuck And His Friends 1975 Chuck Berry 1978 Live In Concert 1979 Rock It Скрыть...
Популярные аккорды Chuck Berry:
алфавиту | просмотрам | случайно
  • A
    Deep down in Louisiana, close to New Orleans,
    A
    Way back up in the woods among the evergreens,
          D
    There stood a log cabin made of earth and wood
          A
    Where lived a country boy named Johnny B. Goode
        E
    Who never…
  • Verse 1 ( Intro D+)
    G
    Riding along in my automobile
    
    My baby beside me at the wheel
    C
    I stole a kiss at the turn of a mile
    G
    my curiosity running wild
    D
    crusin' and playin' the radio
    G
    with no particular place to go
    
    Verse…
  • Intro:
    
    E|---------14--13-------------12--10------12--12--12-|
    B|----------------------------------------14--14--14-|
    G|-13--14----------13--12-----------------14--14--14-|
    D|----------------------------------------14--14--14-|
    A|----------------------------------------12--12--12-|
    E|---------------------------------------------------|
    
    D
    It…
  • E
    I'm gonna write a little letter,
    E
    Gonna mail it to my local DJ.
    A
    It's a rockin' rhythm record
    E
    I want my jockey to play.
    B E
    Roll over Beethoven, I gotta hear it again today.
    
    You know, my temperature's risin'
    And the…
  • A / / / 2 / / /
    CHORUS:
    Maybellene, why can't you be true
              D7                     A
    Oh, Maybellene, why can't you be true
           E7                     D7                 A
    You've started back doin' the things you…
  • G / / / 2 / / / 3 / /
         D
    Long-distance information, get me Memphis, Tennessee
    Help me find the party who tried to get in touch with me
        G
    She could not leave her number, but I know who placed the call…
  • Chorus
    
    When I was little boy In Grammar school Always went by the very best rule
    But Evertime the bell would ring You'd catch me playing with my ding-a-ling
    
    Chorus
    
    G C D G
    Once while climbing the garden wall, Slipped…
  • A
    I got on a city bus and found a vacant seat,
    thought I saw my future bride
                             B9
    walking up the street, I shouted to the driver
    hey conductor, you must slow
         A
    down. I think I see her please let…
  • Intro
    e|-------------12--12--11--10--------8-8-|
    B|-------------------------------3s5---5-|
    G|---------9s12--12--11--10--------------|
    D|---------------------------------------|
    A|---------------------------------------|
    E|---------------------------------------|
    
    Solo
    E|--------7-8------7--------------------|
    B|---8-10-------10-----8-10-----8-------|
    G|----------------------------9-------9-|
    D|---------------------------------10---|
    A|--------------------------------------|
    E|--------------------------------------|
    
    E|--------7-8------7--------------------|
    B|---8-10-------10-----8-10-----8---7-6-|
    G|----------------------------9---------|
    D|--------------------------------------|
    A|--------------------------------------|
    E|--------------------------------------|
    
    E|--------------------------------------|
    B|---8-10-11-12---8-10-----8-----8--7-6-|
    G|-----------------------9-----7--------|
    D|--------------------------------------|
    A|--------------------------------------|
    E|--------------------------------------|
    
    E|--------------------------------------|
    B|---8-10-11-12---8-10----8-------------|
    G|----------------------9----7-10--7----|
    D|-----------------------------------10-|
    A|--------------------------------------|
    E|--------------------------------------|…
  • E
    E|-0-0-0-0-0-0-0-0-0-0-0-0-0-0-0-0-0-0-0-0-0-0-0-0-0-0-0-0-0-0-|
    A|-2-2-4-2-2-2-4-2-2-2-4-2-2-2-4-2-2-2-4-2-2-2-4-2-2-2-4-2-2-2-|
    D|-------------------------------------------------------------|
    G|-------------------------------------------------------------|
    B|-------------------------------------------------------------|
    E|-------------------------------------------------------------|
    
    E|-0-0-|
    B|-4-2-|
    G|-----|
    D|-----|
    A|-----|
    E|-----|…
  • CHORUS 1:
    G G7 C
    They're really rockin' in Boston, Pittsburgh, PA
    G G7 C
    Deep in the heart of Texas and round the Frisco Bay
    F C
    All over St. Louis, way down in New Orleans
    G G7 C
    All the cats wanna dance with Sweet Little…
  • Intro
    
    Gtr I
    E|--------|8-8-8-8-8--------|8-8-8-8-8--------|8-8-8-8-8-8-8-8|
    B|----8-10|8-8-8-8-8----8-10|8-8-8-8-8----8-10|8-8-8-8-8-8-8-8|
    G|-/9-----|9---------/9-----|8-8-8-8-8-/9-----|9--------------|
    D|--------|-----------------|-----------------|---------------|
    A|--------|-----------------|-----------------|---------------|
    E|--------|-----------------|-----------------|---------------|…
  • C
    She drew out all her money at the Southern Trust
    
    And put her little boy upon a Greyhound bus
       F
    Leaving Louisiana for the golden west
    C
    Down came the tears from her happiness
        G
    Her own little son named Johnny B…
  • D
    e|---------|-10-10-10-10-10-10-10-10-|-10---------------------|
    B|---10-12-|-10-10-10-10-10-10-10-10-|-10-13-12-10-10---------|
    G|11-------|-------------------------|----13-12-10-11---------|
    D|---------|-------------------------|----------------12-10---|
    A|---------|-------------------------|----------------------12|
    E|---------|-------------------------|------------------------|
    
    e|------------------------|---------------|
    B|------------------------|---s-----s---s-|
    G|------------------------|-119---97-75-5-|
    D|-12-12-12-12-12-12-12---|-1210-109-97-7-|
    A|-12-12-12-12-12-12-12---|---------------|
    E|------------------------|---------------|
    
    G…
  • A7
    Just let me hear some of that...
    
    CHORUS:
    D
    Rock and roll music
    Any old way you choose it
               G
    It's got a back beat, you can't lose it
    D
    Any old time you use it
         A7
    It's gotta be rock and roll music…
  • E
    Arrested on charges of unemployment,
    E
    he was sitting in the witness stand
                                   A
    The judge's wife called up the district attorney
             B                    E
    Said you free that brown eyed…
  • G|-----------|----------------|
    D|-----------|5-/-------------|
    A|-5---7---7-|------5---7---7-|
    E|-----------|----------------|
    
    G|----------------|----------------|
    D|5-/-------------|5-/-------------|
    A|------5---7---7-|------5---7---7-|
    E|----------------|----------------|
    
    G|----------------|----------|
    D|5-/-------------|5-/---5---|
    A|------5---7---7-|----------|
    E|----------------|----------|
    
    G|------------------2---5-|3---3-2-------------|
    D|------2---2-5---5-------|----------5---2---2-|
    A|3---3-------------------|--------------------|
    E|------------------------|--------------------|
    
    G|------------5-6-7-|7---7-----7-------------|
    D|5-----------------|------9-----------------|
    A|----7---5---------|------------5---5-7---5-|
    E|------------------|------------------------|
    
    G|----4---7-----|--------------|
    D|5-------------|5-------------|
    A|------------5-|----7---5---7-|
    E|--------------|--------------|
    
    G|------------------|--------------|
    D|------------------|5-------------|
    A|5---5-------5---7-|----5---7---7-|
    E|------7---7-------|--------------|
    
    G|----------------|----------------|
    D|5-/-------------|5-/-------------|
    A|------5---7---7-|------5---7---7-|
    E|----------------|----------------|…
  • D7                                   G
    Yeah 'n' I'm doin' all right in school.
    G
    They ain't said I broke no rule.
    G                     C
    I ant never been in Dutch.
    C                         G
    I don't browse around too much
    
    REFRAIN
    G…
  • INTRO:
    
    E|-/8--8--8--8--8-----------|-8-----------8-----8---8---8--11b-|
    B|-/8--8--8--8--8--10-------|-8--10-------8-----8---8---8--11b-|
    G|---------------------8--9-|--------8h9-----9-----------------|
    D|-----------------------10-|---------------10-----------------|
    A|--------------------------|----------------------------------|
    E|--------------------------|----------------------------------|…
  • E|-------8-8-8-8-8-------------------|
    B|-5s8s7-8-8-8-8-8--5s8s7--8-8-8-8-8-|
    G|-------------------------9-9-9-9-9-|
    D|-----------------------------------|
    A|-----------------------------------|
    E|-----------------------------------|
    
    E|-------8-8-8-7s8-8-8-7s8-8-8-8-8----------|
    B|-5s8s7-8-8-8-7s8-8-8-7s8-8-8-8-8-----9~~~-|
    G|-------------------------------------9~~~-|
    D|------------------------------------------|
    A|------------------------------------------|
    E|------------------------------------------|…
  • G
    Up in the mornin' and off to school
    The teacher is teachin' the golden rule
                                   C
    American hist'ry and practical math
                                    G
    You're studyin' hard, hopin' to pass…
  • INTRO:
    
    E|-14-14-14-14--14-^17-16-14-|  Repeat once
    G|---------------------------|
    B|---------------------------|
    D|---------------------------|
    A|---------------------------|
    E|---------------------------|
    
    E A
    Everything…
  • Verse 1 (Breaks 1st & 2nd Verse)
    B
    They say the joint was rockin'
    
    a goin' 'round and round
    E B
    Yeah reelin' and a rockin' what a crazy sound
    F# B
    Well they never stopped rockin' till the moon went down
    
    
    Verse 2
    B
    Oh it…
  • Intro
      Gtr I
    E|----|-8-8-8-8-8-----------|
    B|-5/-|-8-8-8-8-8-10-8------|
    G|-5/-|-----------10-8h9----|
    D|----|------------------10-|
    A|----|---------------------|
    E|----|---------------------|
    
    E|-8-8-8-8-8-----------|-8-----------8-------8-|
    B|-8-8-8-8-8-10-8------|-8-10-8------8-------8-|
    G|-----------10-8h9----|---10-8h9-------9--9---|
    D|------------------10-|----------10---10-10---|
    A|---------------------|-----------------------|
    E|---------------------|-----------------------|…
  • intr. G C D G
    
    G
    TULANE AND JOHNNY OPENED AN NOVELTY SHOP
    BACK UNDER THE CORNER IT WAS A CREAM OF THE CROP
    C
    EVERY THING WAS CLICKING AND THE BUSINESS WAS GOOD
    G
    ?TIL ONE DAY LO BEHOLD AN OFFICER STOOD
    D
    JOHNNY JUMPED THE…
Наверх