Аккорды «Damaged»

Популярные аккорды Damaged:
алфавиту | просмотрам | случайно
  • Tune down 1 1/2 steps (Db,Gb,B,E,Ab,Db)
    
    * Note: Most parts can be transcribed up or down a string, depending 
            on your preference. This is just my idea of the notes.
    
    1||---------||------------------|-----|-----|-----------------||
    2||---------||------------------|-----|-----|-----------------||
    3||---------||------------------|--|--|-----------------||
    4||---------||------------------|-----|-----|-----------------||
    5||-3---3---||-77777777---------|-----|-----|-777777773---3---||
    6||-1---1---||---------11111111-|-----|-----|---------1---1---||
    
    
    1||-----------------|-----|-----|-----------------||
    2||-----------------|-----|-----|-----------------||
    3||-----------------|--|--|-----------------||
    4||-999-999---------|-----|-----|-999-999---------||
    5||-777-777-333-333-|-----|-----|-777-777-3---3---||
    6||---------111-111-|-----|-----|---------1---1---||…
  • Tune down 1 1/2 steps (Db,Gb,B,E,Ab,Db)
    
    1||-----------------||-----------------||-----------------|-----------------||
    2||-----------------||-----------------||-----------------|-----------------||
    3||-----------------||-----------------||-----------------|-----------------||
    4||-----------------||-5-------5---6-3-||-----------------|-1-----------4---||
    5||-3-------3---4-1-||-3-3-5-6-3-4-4-1-||-5-------4-5-4---|-1-----------2---||
    6||---1-3-4---2-----||---1-3-4---2-----||-3-------2-3-2---|---------3-2-----||…
  • Tune down 1 1/2 steps (Db,Gb,B,E,Ab,Db)
    
    1||---------------------||------------------|------------------|------------------|
    2||---------------------||------------------|------------------|------------------|
    3||---------------------||------------------|------------------|------------------|
    4||-2-------1-2-------1-||------------------|------------------|------------------|
    5||-2-3-4-5-1-2-3-4-5-1-||---------77777777-|---------88888888-|---------77777777-|
    6||---3-4-5-----3-4-5---||-00000055---------|-00000055---------|-00000055---------|
    
    
    1||-----------------||-----||-----------------||------------||-----------------||
    2||-----------------||-----||-----------------||------------||-----------------||
    3||-----------------||-----||-----------------||------------||-----------------||
    4||-----------------||-----||-----455---------||-----455---||-----455---------||
    5||-9--8--7--6--5---||-4---||-2-2-233-5-5-444-||-2-2-233---||-2-2-233-555-4-4-||
    6||-7--6--5--4--3---||-2---||-0-0-----3-3-222-||-0-0--------||-0-0-----333-2-2-||…
  • Tune down 1 1/2 steps (Db,Gb,B,E,Ab,Db)
    
       Double pick notes
    1||-----------------||---------||-------------------|-----------------||
    2||-----------------||---------||-------------------|-----------------||
    3||-----------------||---------||-------------------|-----------------||
    4||-----------------||---------||-------------------|-----------------||
    5||-3-5-4-5-7-5-4-5-||-3-3-3-3-||-------------------|---------3-3-3-3-||
    6||-1-3-2-3-5-3-2-3-||-1-1-1-1-||-0000000000/888777-|-000000001-1-1-1-||…
  • Tune down 1 1/2 steps (Db,Gb,B,E,Ab,Db)
    
       Intro (can transpose the 5 on the 6th string to 0 on the 5th string)
    1||------------------|------------------|------------------|------------------||
    2||------------------|------------------|------------------|------------------||
    3||------------------|------------------|------------------|------------------||
    4||------------------|------------------|------------------|------------------||
    5||-7--7--7--7--7-7--|-8--8--8--8--8-8--|-7--7--7--7--7-7--|-6--6--6-5--5--5--||
    6||--55-55-55-55-5-5-|--55-55-55-55-5-5-|--55-55-55-55-5-5-|--55-55-5-55-55-5-||…
  • Tune down 1 1/2 steps (Db,Gb,B,E,Ab,Db)
    
    1||-----------------|-----------------|-----------------|-----------------||
    2||-----------------|-----------------|-----------------|-----------------||
    3||-----------------|-----------------|-----------------|-----------------||
    4||-----------------|-----5-4---5-4---|-----------------|-----------------||
    5||-3-2-----3-2-----|-3-2-3-2---3-2-5-|-3-------3/53---|-2------(7)------||
    6||-1-0-----1-0-----|-1-0-----------3-|-1-------1/31---|-0---------------||
    
    
    1||-----------------|-----------------|-----------------|-----------------||
    2||-----------------|-----------------|-----------------|-----------------||
    3||-----------------|-----------------|-----------------|-----------------||
    4||-----------------|-----54---54---|-----------------|-----------------||
    5||-32-----32-----|-32-32-2-32-5-|-3-------3/53---|-2---------------||
    6||-1-0-0-1-0-0-|-1-----------3-|-1-1-1-1-1/31---|-0-0-0-0-0-0-0-0-||…
  • Tune down 1 1/2 steps, then the low Db to B (B,Gb,B,E,Ab,Db)
    
       Intro                                                       Verse riff (Faster)
    1||------------------||-------------------|------------------||-----------------------|
    2||------------------||-------------------|------------------||-----------------------|
    3||------------------||-------------------|------------------||-----------------------|
    4||------------------||-----7-------------|-----7------------||-----------------------|
    5||-0-----1-----1/3--||-0---5-6-----6/76-|-0---5-6-----6/7--||-0-0-0-0-6p5h6p5h6p5h6-|
    6||-0---0-1---001/3--||-0-----6---666/76-|-0-----6---666/7--||-0-0-0-0-6p5h6p5h6p5h6-|…
  • Tune down 1 1/2 steps, then the low Db to B (B,Gb,B,E,Ab,Db)
    
       Intro
    1||-----------------|-------------------|-----------------|-----------------||
    2||-----------------|--------------A.H--|-----------------|-----------------||
    3||-----------------|-------------------|-----------------|-------------7---||
    4||-----------------|--------------|-----------------|-------------7---||
    5||-0-0-0-0-0-0-0---|-0-0-0-0-0-0-------|-0-0-0-0-0-0-0---|-0-0-0-0-0-0-----||
    6||-0-0-0-0-0-0-0---|-0-0-0-0-0-0-------|-0-0-0-0-0-0-0---|-0-0-0-0-0-0-----||
    
    
    1||--------------------|------------------|---------------------|------------------||
    2||--------------------|------------------|---------------------|------------------||
    3||--------------------|------------------|------------9/109-8-|------------------||
    4||-----6/7------------|-----6/7--------5-|-----6/7-------------|-----6/7--------5-||
    5||-0--04/56--02/32-1-|-0--04/56--030503-|-0--04/56--07/-87-6-|-0--04/56--030503-||
    6||-0--0---6--02/32-1-|-0--0---6--03050--|-0--0---6--0---------|-0--0---6--03050--||
    
    
    1||-----------------|---------------------|-----------------|--------------------||
    2||-----------------|---------------------|-----------------|--------------------||
    3||-----------------|---------14-14-14-14-|-----------------|---------13/1413---||
    4||-----------------|---------12-12-12-12-|-----------------|---------11/1211---||
    5||---------6-6-----|---------------------|---------6-6-----|--------------------||
    6||-0-0-0-0-----0-0-|-0-0-0-0-------------|-0-0-0-0-----0-0-|-0-0-0-0------------||
    
    
    1||------------------|---------------------|------------------|--------------------||
    2||------------------|---------------------|------------------|--------------------||
    3||------------------|---------14-14-14-14-|------------------|---------13/1413---||
    4||------------------|---------12-12-12-12-|------------------|---------11/1211---||
    5||---------6666-----|---------------------|---------6666-----|--------------------||
    6||-00000000----0000-|-00000000------------|-00000000----0000-|-00000000-----------||
    
    
    1||-----------------|-----------------||------------------|-----------------||
    2||-----------------|-----------------||------------------|-----------------||
    3||-----------------|-----------------||------------------|---------2---2---||
    4||-----------------|-----------------||-0000006633330000-|-006633330---0---||
    5||-0---------------|-0-----------0---||------------------|-----------------||
    6||-0---0-0-0-6-3-0-|-0---0-6-3---0---||------------------|-----------------||…
  • Tune down 1 1/2 steps (Db,Gb,B,E,Ab,Db)
    
       Intro riff (With pick scrapes) ()Not played in fast part at end
    1||-----------------|-------------------||-----------------|-----------------|
    2||-----------------|-------------------||-----------------|-----------------|
    3||-----------------|-------------------||-----------------|-----------------|
    4||-----------------|-------3---2-(3)/-||-----------------|-------3---2-3---|
    5||-2-2-2-2-3-2-2-2-|-4-2-2-1---0-(1)/-||-2-2-2-2-2-2-2-2-|-2-2-2-1---0-1---|
    6||-0-0-0-0-1-0-0-0-|-2-0-0-------------||-0-0-0-0-0-0-0-0-|-0-0-0-----------|…
  • All Guitars are tuned as follows: E A D G B E  (from low to high)
    
    Rhythm Guitar Chord TAB Stave (Guitar1)
    ---------------------------------------
    
    The stave below shows the TAB for the rhythm chords which are played
    by…
  • Tune down 1 1/2 steps, then the low Db to B (B,Gb,B,E,Ab,Db)
    
       Main Riff
    1||-------------------------|-------------|-------------------------|-------------||
    2||-------------------------|-------------|-------------------------|-------------||
    3||-------------------------|-------------|-------------------------|-------------||
    4||-3-------3-------3-------|-3/5-5/6-65-|-5-------5-------5-------|-5/6-65-53-||
    5||-3---3-3-3---3-3-3---3-3-|-3/5-5/6-65-|-5---5-5-5---5-5-5---5-5-|-5/6-65-53-||
    6||-----3-3-----3-3-----3-3-|-------------|-----5-5-----5-5-----5-5-|-------------||…
  • The guitar is tuned as follows: E A D G B E (from low to high)
    
    Section A (Play twice) [CD time 00:00]
    --------------------------------------
      A11   ~	    A11     D11 ~     A11   ~	   	A11     D11 ~
    E-(Bass-joins-on-the-second-time)---|-----------------|-----------------|
    B-----------------|-----------------|-----------------|-----------------|
    G-------0---------|-------------0---|-------0---------|-------------0---|
    D-----0------0----|-----0-----4---4-|-----0------0----|-----0-----4---4-|
    A---4------4---4--|---4---4-5-------|---4------4---4--|---4---4-5-------|
    E-5---------------|-5---------------|-5---------------|-5---------------|
    
    Section…
  • Tune down 1 1/2 steps (Db,Gb,B,E,Ab,Db)
    
       Intro
    1||-----------------|-----------------|-----------------|-----------------||
    2||-----------------|-----------------|-----------------|-----------------||
    3||-----------------|-----------------|-----------------|-----------------||
    4||-----------------|-----------------|-----------------|-----------------||
    5||-2---2---2---2---|-2---2---2---2---|-2---2---2---2---|-2-2-2-2-2-2-2---||
    6||-0---0---0---0---|-0---0---0---0---|-0---0---0---0---|-0-0-0-0-0-0-0---||…
  • Tune down 1 step (D,G,F,C,A,D)
    
       Intro
    1||--------------------||------------------||--------------------------|
    2||--------------------||------------------||--------------------------|
    3||--------------------||------------------||--------------------------|
    4||--------------------||------------------||--------------------------|
    5||-222222222222222222-||-22-255-522-25-/8-||-------222222------222222-|
    6||-000000000000000000-||-00-033-300-03-/6-||-222222------222222-------|
    
    
    1||--------------------------||------------------||--------------------||
    2||--------------------------||------------------||--------------------||
    3||--------------------------||------------------||--------------------||
    4||--------------------------||-----54------43---||--------------------||
    5||-------222222-------------||-2---32--3---21---||-2------------------||
    6||-222222------111111000000-||-0-------1--------||-0-0000003^-04^-05^-||
    
    
    1||--------------------------------||-----------------|-----------------||
    2||--------------------------------||-----------------|-----------------||
    3||--------------------------------||-----------------|-----------------||
    4||--------------------------------||-----------------|-----------------||
    5||--------------------------------||-22-255-522-25-4-|-22-255-522-25-8-||
    6||-0000003/4/5/6660000003/4/5/666-||-00-033-300-03-2-|-00-033-300-03-6-||
    
    
    1||------------------|------------------||
    2||------------------|------------------||
    3||------------------|------------------||
    4||-----44-4----44-4-|-----44-4---------||
    5||-44-422-244-422-2-|-44-422-233-322-2-||
    6||-22-2----22-2-----|-22-2----11-100-0-||…
Наверх