Аккорды «Dark Winter»

Dark Winter
1998 - год создания. Создатели группы Rich -ударные и Eug -гитара 2004 - альбом "At Eve Of Dark Winter" 2005 - участие в сборнике "Второе дыхание" 2005 - выступление на крымском фестивале "Рок Квартал" 2006 - распад группы 2007 - эксперимент с молодыми, начинающими музыкантами. Выступление на Gbob 2008 - возрождение группы в оригинальном составе 1998 - год создания. Создатели группы Rich -ударные и Eug -гитара 2004 - альбом "At Eve Of Dark Winter" 2005 - участие в сборнике "Второе дыхание" 2005 - выступление на крымском фестивале "Рок Квартал" 2006 - распад группы 2007 - эксперимент с молодыми, начинающими музыкантами. Выступление на Gbob 2008 - возрождение группы в оригинальном составе Скрыть...

Теги:

Популярные аккорды Dark Winter:
алфавиту | просмотрам | случайно
  • Intro x5
    e|------------------------------------------
    B|------------------------------------------
    G|------------------------------------------
    D|------------------------------------------
    A|-3333555566668888-------------------------
    E|-3333555566668888-------------------------
    B|-3333555566668888-------------------------
    
    
    Fill…
  • Intro
    e|---------------------------------------------------------
    B|---------------------------------------------------------
    G|---------8-7--5555555533333333---------------------------
    D|-5/7—7h8-------------------------------------------------
    A|---------------------------------------------------------
    E|---------------------------------------------------------
    B|---------------------------------------------------------
    
    
    Chorus
    e|---------------------------------------
    B|---------------------------------------
    G|---------------------------------------
    D|---------------------------------------
    A|-9-99-9---3-33-33-5-55-5---7-77-77-----
    E|-9-99-9---3-33-33-5-55-5---7-77-77-----
    B|-9-99-9---3-33-33-5-55-5---7-77-77-----
    
    
    Verse
    e|---------------------------------------
    B|---------------------------------------
    G|---------------------------------------
    D|---------------------------------------
    A|---------------------------------------
    E|---9---9---7---7---5---5---3-----------
    B|-7---7---5---5---3---3---1-------------…
  • Intro x2
    e|-------------------------------------------------------
    B|-------------------------------------------------------
    G|-------------------------------------------------------
    D|-------------------------------------------------------
    A|-------------------------------------------------------
    E|---------55555555--------33333333----------------------
    B|-00000000--------00000000------------------------------
    
    
    Riff…
  • Intro        Play this first part 3x then play the 2nd line
    e|----------------------------------------------------------
    B|----------------------------------------------------------
    G|----------------------------------------------------------
    D|------5-7-8-----------------------------------------------
    A|-0-0------------------------------------------------------
    D|----------------------------------------------------------
    
    e|----------------------------------------------------------
    B|----------------------------------------------------------
    G|----------------------------------------------------------
    D|------7---------------------------------------------------
    A|-0--0-----------------------------------------------------
    D|----------------------------------------------------------
    
    
    Riff…
Наверх