Аккорды «Dave Matthews Band»

Dave Matthews Band
Семья Мэттьюзов переехала из Южной Африки в Нью-Йорк, когда Дэйву было всего два года. После трагической смерти его отца, мальчик вернулся вместе с матерью в Йоханнесбург, где и окончил школу. Затем Дэйв перебрался городе Шарлоттесвилль, штат Виржиния, где в 1990 году ему впервые пришла идея собрать свою группу. К этому времени Дэйв Мэттьюз (Dave Matthews) уже прилично пел и играл на гитаре и, конечно, пытался писать музыку, так что вполне логично, что однажды ему страшно захотелось записать на… Читать полностью... Семья Мэттьюзов переехала из Южной Африки в Нью-Йорк, когда Дэйву было всего два года. После трагической смерти его отца, мальчик вернулся вместе с матерью в Йоханнесбург, где и окончил школу. Затем Дэйв перебрался городе Шарлоттесвилль, штат Виржиния, где в 1990 году ему впервые пришла идея собрать свою группу. К этому времени Дэйв Мэттьюз (Dave Matthews) уже прилично пел и играл на гитаре и, конечно, пытался писать музыку, так что вполне логично, что однажды ему страшно захотелось записать на кассету несколько собственных песен. Вместо того чтобы просто самому попеть в свое удовольствие и подыграть себе на гитаре, парень решил обогатить свои композиции еще несколькими инструментами. Нашлись и помощники - барабанщик Картер Бьюфорд (Carter Beauford) и саксофонист Лирой Мур (LeRoi Moore), которые уже зарекомендовали себя в городе как отличные джазовые музыканты. Вскоре к ребятам присоединился 16-летний вундеркинд Стефан Лессард ( Stefan Lessard), знавшего бас-гитару как свои пять пальцев, скрипач Бойд Тинсли (Boyd Tinsley), а завершил формирование штата клавишник Питер Гризар (Peter Griesar). Правда, через несколько лет он ушел из группы, так же как и Тинсли. Эта довольно нетрадиционная палитра инструментов, упорные поиски собственного пути, страсть к музыке и темперамент интернациональной бригады участников позволили команде Дэйва Мэттьюза создать свой уникальный и гибкий стиль, волнующий микс жанров, техник и направлений, отражавший их внутреннюю свободу и широту взглядов. Первый официальный концерт новосозданной группы Dave Matthews Band состоялся 11 мая 1991 года на приватной вечеринке в родном Шарлоттесвилле. Летом того же года они дебютировали перед широкой аудиторией, отлично вписавшись в программу городского фестиваля Earth Day Festival. А потом начались и регулярные выступления на местных мероприятиях, так что довольно скоро слухи о новой группе с таким заразительным саундом распространились далеко за пределы родного города. Клубы первыми раскусили, что к чему, группа была нарасхват, а последовавшие туры выстраивались по все более длинным маршрутам. 9 ноября 1993 года Dave Matthews Band выпустили свой первый альбом "Remember Two Things" на независимом лейбле Bama Rags. Альбом был записан во время концерта в Muse Music Club в августе 1993 года, продюсировался собственными силами и издавался за свой счет. Благодаря исключительно плотному гастрольному графику очень скоро тираж дебютной работы превысил 150 тысяч копий. Диск отлично постоял за себя в College charts, а впоследствии получил золотой сертификат от RIAA (Ассоциации Рекординговой промышленности США) - весьма впечатляющее достижение для альбома, изданного на независимом лейбле. Тем временем DMB исследовали все новые гастрольные маршруты, а армия фанов росла не по дням, а по часам. Разрешив поклонникам записывать их шоу для использования в личных целях, DMB положили начало созданию огромной интерактивной коммуны, которая своими силами утоляла потребность в аудиоматериалах. Независимое положение длилось недолго. Вскоре группа оказалась перед необходимостью выбрать лейбл (а желающих нашлось сразу несколько), и отдала предпочтение RCA Records, предложившему наиболее гибкий контракт. Дебют на лейбле RCA "Under The Table and Dreaming" записывался в начале 1994 года, а незадолго до даты релиза, 27 сентября 1994, DMB отправились в первый официальный национальный тур. После многомесячных гастролей по США, которые проходили с неизменным успехом, в 1995 году группа представила себя Европе, побывав в том числе и на площадках ведущих летних фестивалей. Осенью 1995 года пришло время вернуться к студийной работе. К этому времени "Under The Table and Dreaming", который стартовал с 34 строки в Billboard charts, успел стать уже четырежды платиновым по версии RIAA. "Crush", второй альбом группы на лейбле RCA, вышел 30 апреля 1996 года, дебютировав сразу на 2 месте в Billboard 200. Продюсированием записи занимался Стив Лиллиуайт (Steve Lillywhite). Музыкальная пресса и слушатели отдали должное команде Дэйва Мэттьюза. Практически весь 1997-й года гастроли не прекращались, Северная Америка открыто признавалась в любви своим новым кумирам. Хотели они того или нет, но участники DMB оказались в числе наиболее успешных рок-групп 90-х. 28 октября 1997 г. на Bama Rags/RCA был опубликован двойной концертный диск "Live at Red Rocks 8-15-95". Без всякой рекламы и промо-акций диск дебютировал на третьем месте в чарте Billboard 200 и уже очень скоро стал платиновым. Эта запись стала высококачественной альтернативой тем чрезмерно дорогим, при неважном качестве, нелегальным «концертникам» группы, которые получили широкое распространение на черном рынке. 28 апреля 1998 года DMB подготовили третий лонг-плей "Before These Crowded Streets". Высоко оцененная критиками запись дебютировала на первой строке Billboard 200, легко сместив даже саундтрек к блокбастеру «Титаник». Следующие полтора года группа почти не прекращала гастролировать - по переполненным стадионам, театральным залам, аренам. В январе 1999 года концертная серия пополнилась еще одним альбомом с длинным названием "Live at Luther College: An Acoustic Performance by Dave Matthews and Tim Reynolds". Эта запись сразу оказалась на второй строке чарта. Выступление в Luther College проходило с участием давнего друга группы Тима Рейнольдса (Tim Reynolds). Высококлассный гитарист, Рейнольдс отметился на всех альбомах DMB и часто гастролировал с ними как сессионный музыкант. Кроме того, Дэйв Мэттьюз и Тим Рейнольдс в 96, 97 и 99-м годах отправлялись в небольшие туры вдвоем как акустический дуэт. Третий релиз из концертной серии, увековечивший шоу на стадионе Continental Airlines Arena в Нью-Джерси, вышел в ноябре 1999 г. и назывался "Listener Supported". Одновременно был опубликован и видеоотчет о концерте. Альбом очень быстро стал дважды платиновым, а видео разошлось более чем миллионным тиражом. В начале 2000-го года шоу-марафон продолжается, Dave Matthews Band завершают тур в статусе ведущей концертной группы Америки. Осенью Dave вместе с легендарным продюсером Гленом Баллардом (Glen Ballard; работал с Аланис Мориссетт) занялся подготовкой новых песен для следующего студийного релиза, и за считанные дни они сообща записали и аранжировали 12 треков. Последствия этого творческого взрыва достигли ушей слушателей 27 февраля 2001 года, в день издания нового альбома "Everyday". Мэттьюз впервые - и с успехом - играл на электрогитаре, а Баллард сумел добиться от музыкантов более четкого и жесткого звучания, что в совокупности и гарантировало альбому феноменальный успех. В марте 2001 г. "Everyday" возглавил американский чарт, а на сегодняшний день разошелся уже трехмиллионным тиражом. Лето 2001 года DMB провели в туре по стране. А в октябре группа издала четвертый концертный альбом "Live In Chicago" (съемки 19 декабря 1998 г.), записанный вместе с приглашенными музыкантами Виктором Вутеном, Масео Паркером и, разумеется, Тимом Рейнольдсом. Январь 2002 года музыканты встретили в хорошо знакомой студии Plant Studios в городе Сосалито, записывая новый лонг-плей. На этот диск попали несколько ранее известных песен, записанных еще в 2000 году, но в новой оркестровке, а также новые мелодии, частично представленные публике на концертах в последние месяцы. "Busted Stuff" вышел 16 июля 2002 года, став исключением в своем роде: впервые за всю карьеру участники группы обошлись своими силами и не пригласили ни единого стороннего музыканта. Естественно, релиз был поддержан активными гастролями по Соединенным Штатам летом 2002. По итогам тура вышел новый live-альбом "Live At Folsom Field", на который впервые попали живые версии многих песен из разных альбомов. На сегодняшний день это лучший по качеству концертный альбом Dave Matthews Band. В 2003-м году Дэйв Мэттьюз взял небольшой отпуск, чтобы подготовить дебютный сольный релиз. Релиз названного «Some Devil» альбома состоялся 23 сентября 2003-го. В записи альбома принимали участие Тим Рейнольдс, басист Тони Холл (работал с Бобом Диланом и Уилли Нельсоном) и барабанщик Брэди Блейд-младший. По словам самого музыканта, диск был составлен из такого материала, который не совсем подходит для исполнения группой. Помимо давних коллег музыканта, в записи приняли участие духовая секция The Dirty Dozen Brass Band, струнно-духовой ансамбль Seattle Music Group, четыре десятка виолончелистов и скрипачей, бэк-вокалисты Total Experience Gospel Choir и другие сессионные музыканты. Разница между альбомами Dave Matthews Band и сольной работой их фронтмена такая же, как между шоу на переполненном стадионе и камерным концертом, грохотом пятиметровых колонок и пением под гитару, проповедью с трибуны и исповедью. За десять лет в музиндустрии, выпустив со своей командой шесть студийных и четыре концертных альбома, Дэйв Мэттьюз, вероятно, накопил за душой достаточно невысказанного, слишком личного, слишком хрупкого, о чем не поют всем коллективом. Скрыть...
Популярные аккорды Dave Matthews Band:
алфавиту | просмотрам | случайно
  • E------------------------------------------|
    B------------------------------------------|
    G--------x--x--x--x--------x--x--x--x------|
    D-----x--0--2--2--0-----x--0--2--2--0------|
    A-----7--5--3--3--2-----7--5--3--3--2------|
    E--0--0--x--x--x--x--0--0--x--x--x--x------|…
  • Intro Guitar 1°:
    
    In the intro there's a lot of palm muting, listen to it. Try to find the rhythm,
    to hear when dave palm the notes and when he not.
    
         [0:00]
         Dm
    E|-|--------------------------------|----------------------------------|-|
    B|-|--------------------------------|----------------------------------|-|
    G|-|--10----------10----------10----|--10-----------10-----------10----|-|
    D|-|--12-12-12-12-12----12-12-12-12-|--12--12-12-12-12-----12-12-12-12-|-|
    A|-|--------------------------------|----------------------------------|-|
    e|-|--------------------------------|----------------------------------|-|
    
    E|-|--------------------------------|----------------------------------|-|
    B|-|--------------------------------|----------------------------------|-|
    G|-|--10----------10----------10----|--10-----------10-----------10----|-|
    D|-|--12-12-12-12-12----12-12-12-12-|--12--12-12-12-12-----12-12-12-12-|-|
    A|-|--------------------------------|----------------------------------|-|
    e|-|--------------------------------|----------------------------------|-|
    
    E|-|--------------------------------|----------------------------------|-|
    B|-|--------------------------------|----------------------------------|-|
    G|-|--10----------10----------10----|--10-----------10-----------10----|-|
    D|-|--12-12-12-12-12----12-12-12-12-|--12--12-12-12-12-----12-12-12-12-|-|
    A|-|--------------------------------|----------------------------------|-|
    e|-|--------------------------------|----------------------------------|-|
    
    E|-|--------------------------------|----------------------------------|-|
    B|-|--------------------------------|----------------------------------|-|
    G|-|--10----------10----------10----|--10-----------10-----------10----|-|
    D|-|--12-12-12-12-12----12-12-12-12-|--12--12-12-12-12-----12-12-12-12-|-|
    A|-|--------------------------------|----------------------------------|-|
    e|-|--------------------------------|----------------------------------|-|
    
    Do…
  • Intro
    e-----------------------------------------------------|
    b-----------------------------------------------------|
    g--2----4----2----4----7----6----2----4----2--4--6--7-|
    d--0----0----0----0----0----0----0----0----0--0--0--0-|…
  • e-----------------------------------------------------------------------|
    b-----------------------------------------------------------------------|
    g---------------2----0-------------2----0-------------------------------|
    d-------3-3-2-0---3----------3-2-0---3----------------------------------|
    a-----------------------------------------------------------------------|
    e-----------------------------------------------------------------------|
    
    bB…
  • Verse  
    G|---------------------|---------------------|  
    D|*--------------------|--------------------*|  
    A|*------------2-2h4---|-------------2-2h4--*|  
    E|---4--4-4-4----------|---0--0-0-0----------|  
    
    
    Chorus  
    G|-------------------|-------------------|------------------------|…
  • Intro & Verse:
    E----x----------x----  -------------------------x----
    B----x----------x----  -------------------------x----
    G----9------9---9----  -------------------------9----
    D---10--10------10---  ---------10--------10----10---
    A-8--x----------x----…
  • Tuning: Standard
    
    
    e|-----------------------------------------------------------|
    B|-----------------------------------------------------------|
    G|-----------------------------------------------------------|
    D|------9-9----9----9------9-9----9----9------9-9----9----9--|
    A|----------10---10------------10---10------------10---10----|
    E|---0------------------0------------------8-----------------|
    
    e|---------------------------------------------------------|
    B|---------------------------------------------------------|
    G|---------------------------------------------------------|
    D|-----9-9----9----9------9-9----9----9-----9-9---------------|
    A|---------10---10------------10---10-----------10------------|
    E|---8------------------0-----------------0-------------------|
    
    e|--------------------------------------------------------|
    B|--------------------------------------------------------|
    G|--------------------------------------------------------|
    D|-----9-9----9----9------9-9---------------------------------|
    A|---------10---10------------10------------------------------|
    E|---8------------------8-------------------------------------|…
  • E|-------------------------------------------------------------------|
    B|-------------------------------------------------------------------|
    G|---------0----------0---4-------------0-----2-2-2------------------|
    D|---------0------------0---5---0-------2-----4-4-4------------------|
    A|---------2-----------------------3----3----------------------------|
    E|----3--------------------------------------------------------------|
    
    E|-------------------------------------------------------------------|
    B|------------------------------4h5s3---1-1--1-(0)-------------------|
    G|----------0-------------------5-s-4---2-2--2--0--------------------|
    D|---0------0---0-0-0-0-------------------------0--------------------|
    A|----------2----------3---------------------------------------------|
    E|-----3---------3-3-3-----------------------------------------------|…
  • Solo:
    
    --------------------------------------12/0--------------------------------------|
    --------------------------------------12/0--------------------------------------|
    --------------------------------------------------------------------------------|
    -------------------------10--11--12---------------------------------------------|
    -------------10--11--12---------------------------------------------------------|
    -10--11--12---------------------------------------------------------------------|
    
    
    --------------------------------------------------------------------------------|
    --------------------------------------------------------------------------------|
    --------------------------------------------------------------------------------|
    --------------------------------------------------------------------------------|
    --------------------------------------------------------------------------------|
    -------------10--11--12--12--13--14--12--13--14---------------------------------|
    -10--11--12--------------10--11--12--10--11--12---3---0-------------------------|
    
    
    ----------------------------10-10-------------------------------------------12--|
    ----------------------------10-10-------------12-12----------------12-12----12--|
    ----------------------------------------------12-12----------------12-12--------|
    --------------------------------------------------------------------------------|
    -------------10--11--12---------------------------------------------------------|
    -10--11--12-------------------------10/3--10--------10--3/10--10----------------|…
  • TUNING: Standard
    
    
    --15-14---------------------------------------------------------------------|
    ---------15-13--12------------------------------------------12-13~~/16^-----|
    --------------------14--12-11------11--12-14-12------12-14------------------|
    -------------------------------14-----------------14------------------------|
    ----------------------------------------------------------------------------|
    ----------------------------------------------------------------------------|
    
    
    --15-14----------------------------------------------------------------------|
    ---------15-13--12------------------------------------------12-13-15~~-------|
    --------------------14--12-11------11--12-14-12------12-14-------------------|
    -------------------------------14-----------------14-------------------------|
    -----------------------------------------------------------------------------|
    -----------------------------------------------------------------------------|…
  • --------------------------------------------------
    --------------------------------------------------
    --------------------------------------------------
    -----------8-------6-------5---------------6------
    -------6-------4-------------------8---4----------
    ---4-------------------8-------6---------------8--…
  • e|-----------5--5h7-|-----7-----------------|------------|   
    B|---------7--------|---5---3-----5----5h7--|--6---------|
    G|---/5--7----------|------------------x----|------------|
    D|------------------|----------5----x--7----|------------|
    A|------------------|-7---------------------|------------|
    E|------------------|-----------------------|------------|…
  • Intro: C/G
    This is the opening chord.
    
    E||-----||
    B||-----||
    G||-----||
    D||--2--||
    A||--3--||
    e||--3--||
    
    
    Verse I:
    (This version starts from this part of the song)
    C           Cmaj7        F
    Nothing to kill or die for,
    C…
  • Intro & Verses:
    
          D                             G
    E|-|--2-2-2-X-----------------------3-3-3--|-|
    B|-|--3-3-3-X-----------------------3-3-3--|-|
    G|-|--2-2-2-X-------X--------2------0-0-0--|-|
    D|-|--0-0-0-X-------X--0-2-4---4----0-0-0--|-|
    A|-|--0-0-0-X--4-2--X---------------2-2-2--|-|
    e|-|----------------X------------3--3-3-3--|-|
    
    In…
  • Tuning:eadgbe-standard
    	
    *intro/verse:(driving through the desert..)
    e-----------------------------------------------------------------)
    B-----------------------------------------------------------------)
    G-----------------------------------------------------------------)
    D--------5----3---5-----------------------------------------------)
    A--------5--------------------------------------------------------)
    E--------3--------------------------------------------------------)…
  • Intro & Verse & Chorus:
    Just play G# and C#maj7 along the whole song.
    
    Dave's Guitar.
    
          G#          C#maj7   G#           C#maj7
    E|-|----------------------------------------------|-|
    B|-|----------------------------------------------|-|
    G|-|----------------------------------------------|-|
    D|-|-----6-----6-----6--------6-----6-----6-------|-|
    A|-|--------6-----4--------------6------4---------|-|
    e|-|--4-----------------4--4-----------------4-4--|-|
    
    Tim's…
  • Tuning:eadgbe-standard
    	
    
    *intro/verse:(some devil....stuck inside..)
    e|---------------------------------------------------------------------------|
    B|---------------------------------------------------------------------------|
    G|----------7--8--6--------5--6--4-------------------------------------------|
    D|----------9--9--7--------7--7--6-------------5----------7------------------|
    A|-------------------------------------------5----------7--------------------|
    E|-------7--------------7------------------3----------5----------------------|…
  • It starts off by the Heeeeeeeeeeeeeeeeeeeeeeeeeeeeeyyyyyyyyyyy. Carter does the 4 little 
    drum stick taps during the yell, then you go into this
    I----8------------------I
    I--6----------10---8----I
    I--------10-8----6---6--I
    I------8----------------I
    
    THEN…
  • intro
    ----------------------------x-x-x-x--x--x--x----------------
    ----------------------------x-x-x-x--x--x--x----------------
    ------------x-----------x---7-7-7-7--7--7--7------------x---
    -------x-x-11------x-x-12-------9-9--9--9----------x-x-11---…
  • All over the flute solo.
    
    E|-|-------------------------------|-|
    B|-|-------------------------------|-|
    G|-|-------------------------------|-|
    D|-|--------2--4--2-----------4--2-|-|
    A|-|-----2-----------2-----2-------|-|
    e|-|--0-----------------0----------|-|…
  • ----------
    Verse Riff
    ----------
    
    
       1 & 2 & 3 & 4 &
    G|-----------------|
    D|-----------------|
    A|-----------------|
    E|-------------8--|
    
    ..the weather...
    
    
    
         1   &   2   &   3   &   4   &       1   &   2   &   3   &…
  • Here's the chord index... (You hammer the Am chords throughout the song)
    Am   Am2   E    D/G   F   G   Dm   C   A#
    0     0    0     0    1   3   1    0   1
    1     1    0     3    1   3   3    1   3
    2     2    1     2    2…
  • --------------------------|---------------------------------------------------|
    --------------------------|---------------------------------------------------|
    --------------------------|---------------------------------------------------|
    --9-9-9--7-7-7------------|-2-2--4-4--5-5--7-7--------------------------------|
    --9-9-9--7-7-7------------|-2-2--4-4--5-5--7-7--------------------------------|
    --7-7-7--5-5-5------------|-0-0--2-2--3-3--5-5--------------------------------|…
  • Guitar One:
    e------------------------------------------------------------
    B------------------------------------------------------------
    G----------------------------------------4-4----------------- Repeat 2x
    D-------9slide--------------5--5---5-5---4-4-----------------…
  • Intro & Verses:
    
    E|-|-------------------|---------------|---------------|-|
    B|-|-------------------|---------------|---------------|-|
    G|-|-------------------|---------------|---------------|-|
    D|-|----5-4------------|--5------------|--5------------|-|
    A|-|--------5X4X5-4-0--|----5X4X5-4-0--|----5X4X5-4-0--|-|
    e|-|--5----------------|---------------|---------------|-|…
  • I-----------------I
    I-----------------I
    I-----------1-----I
    I-2-2-2-2-3---3-2-I
    
    
    I-----------------------I
    I-----------------------I
    I-----1-2-1-------1-----I
    I-2-3-------3-2-3---3-2-I
    
    
    I-----------------I
    I-----------------I
    I-----------1-----I
    I-2-2-2-2-3---3-2-I
    
    
    I-----------------------I
    I-----------------------I
    I-----1-2-1-------1-----I
    I-2-3-------3-2-3---3-2-I
    
    
    I---------------------I
    I---------------------I
    I-5-5-4-2-1-----1-----I
    I-----------2-3---3-2-I…
  • throughout the whole song
    
        F           C
    e---1-----------0----------|
    B---1-----------1----------|
    G---2-----------0----------|
    D---3-----------2----------|
    A---3-----------3----------|
    E---1-----------0----------|
    
    
    you…
  • Intro & Verses & Bridge & Pre-Chorus:
    
    
    Intro X 2:
    
    E||-----0-0-0-0----0-0-0----0--0-0-0-0--|
    B||-----5-5-5-5----5-5-5----5--5-5-5-5--|
    G||-----4-4-4-4----4-4-4----4--4-4-4-4--|
    D||-----2-2-2-2----2-2-2----2--2-2-2-2--|
    A||---4----------0-------2--------------|
    e||-------------------------------------|
    
    E|----0-0-0----0-0-0-0----0-0-0-----0--0-0-0-0-----0-0-0--||
    B|----5-5-5----5-5-5-5----5-5-5-----5--5-5-5-5-----5-5-5--||
    G|----4-4-4----4-4-4-4----4-4-4-----4--4-4-4-4-----4-4-4--||
    D|-------------2-2-2-2----2-2-2-----2--2-2-2-2-----2-2-2--||
    A|----------------------0--------2------------------------||
    e|--0--------4----------------------------------0---------||…
  • Intro & Verses:
    
          F        Bm  C
    E|-|-------------------|-|
    B|-|-------------------|-|
    G|-|-------------------|-|
    D|-|------3----9---10--|-|
    A|-|-------------------|-|
    e|-|--1--------7---8---|-|
    
    Verse:
    
    Hey little…
  • Verse
                 ** will indicate just slide to, do not play note
    e-----------------------------------------------
    a-----------------------------------------------
    d-----------3-------------------------9---------
    g--3/5**-0----------5--------7--------------10--
    b-------------5/6**----7/8**--------------------
    E-----------------6--------8-------8-----6------
    
    
    Chorus
    
    e------------------
    a------------------
    d------5---3---5---
    g--5---5---3---5---
    b--5---3---1---x---
    E--3-----------5---…
  • Tuning:eadgbe-standard
    	
    
    	intro&verse:(everythings different...) 
    e|---------------------------------------------------------------------------|
    B|---------------------------------------------------------------------------|
    G|-----------------9h-11-------------------------9h-11-----------------------|
    D|------9h-11------9h-11---------9h-11-----------9h-11-----------------------|
    A|------9h-11--------------------9h-11-------------------------------------…
  • Drop D
    E---------------------------)-----------------------------|
    B---------------------------)-----------------------------|
    G---------------------------)-----------------------------|
    D------0-----0-----0-----0--)-----0-----0-----0-----0-----|
    A-3h5-----5-----5-----5-----)3h5-----5-----5-----5--------|
    D---0-----------------------)--4-----------5--------------|…
  • -------------------9----9----9h10--9----9-----------------------------------------------------------------|
    -----3--------------10---10---------10----10--------------------------------------------------------------|
    -----2----------------9----9----------9-----9-------------------------------------------------------------|
    --1--0----------------------------------------------------------------------------------------------------|
    --2-------------------------------------------------------------------------------------------------------|
    --2-------------------------------------------------------------------------------------------------------|
    ----------------------------------------------------------------------------------------------------------|…
  • Chorus:
       D     Bm       ?
    E--2------2-------3--------|       This is just repeated
    B--3------3-------3--------|
    G--2------4-------0--------|
    D--0------4-------0--------|
    A--0------0-------2--------|
    E--0------0-------3--------|
    
    
    D…
  • e------------------------------------------------------------|
    B-----------6----------4-------------------------------------|
    G-----8-------------------0h1p0-----3-0----------------------|
    D-------8------8---5--------------3----------3-----3---0-----|
    A--6------5------5---3----------1----------1---1--0--0-------|
    E----------------------------------------4-------------------|
    
    
    e------------------------------------------------------------|
    B------1---------0h1p0---------------------------------------|
    G--------0----2----------3-----------------------------------|
    D----2---------------------3-0------3------3-----------------|
    A--3--------2----------1----------3------3----6-------6-8-6--|
    E-------------------------------1------4---------6/8---------|…
  • Intro:| G C X 3 | G C D G | G C X 3 | G C D G |
    
    
    Verse I:
    
    G            C       G             C
    I am an old woman named after my mother,
    G            C          G        C        D
    My old man is another child that's grown…
  • Intro:
    Try to find the rhythm for the intro.
    
          D                             A             G
    E|-|---------------------------|-|-----------|-|-----------|-|
    B|-|---------------------------|-|-----------|-|-----------|-|
    G|-|--11-11-11-11-11-11-11-11--|-|--6-6-6-6--|-|--4-4-4-4--|-|
    D|-|---7--7--7--7--7--7--7--7--|-|--2-2-2-2--|-|--0-0-0-0--|-|
    A|-|---9--9--9--9--9--9--9--9--|-|--4-4-4-4--|-|--2-2-2-2--|-|
    e|-|--10-10-10-10-10-10-10-10--|-|--5-5-5-5--|-|--3-3-3-3--|-|…
  • Chord Voicings:
    
    	--2--------------5-----|
    	--3--1-----1--1--3-----|
    	--2--0--0--2--2--0--1--|
    	--0--2--0--3--2--4--2--|
    	-----3--2--3--0--5--2--|
    	--------3-----------0--|
    	  D  C  G  F  Am D2 E
    
    Intro:
    	 D       C…
  • Intro-Verse  Gtr.1 Acoustic
    E------------------------------------------------
    B------------------------8------7--------5-------
    G------7-------6---------7------x--------x-------
    D----0-4-------2------9------7--7--------5-------
    A------------4------7------5-------------3-------
    E--7-------5-------------------------------------
    
    
    Gtr.1…
  • Am             G            F
    ------------------0--------------1-------------1---------------|
    ------------------1--------------0-------------1---------------|
    ------------------2--------------0-------------2---------------|
    ---------------2-----------------------------------------------|
    --2--3--2---0-----------0-----2-------2------3------2--3--2--0-|
    0--------------------0-----3--------3-----1-------0------------|…
  • Intro & Verses:
    
           
    E|----------------------------------------------|
    B|-------------4----------------------X---------|
    G|--------4/6--4----------------------X---------|
    D|--------4/6-------------------------X---------|
    A|--6/2-----------4/6--4--2/4--2---2-----2--4---|
    e|---------------------------------0------------|
    
    E|----------------------------------------------|
    B|-------------4----------------------X---------|
    G|--------4/6--4----------------------X---------|
    D|--------4/6-------------------------X---------|
    A|----------------4/6--4--2/4--2---2-----2--4---|
    e|---------------------------------0------------|
    
    
    Verse:
    
    E…
  • INTRO: A E D
    
    
    VERSES 
    		A	                  E
    So here we are tonight, you and me together
                      D                       A
    The storm outside, the fire is bright
    				       E
    And in your eyes I see what's on my…
  • Intro:
    
       |   .   |   .   |   .   |   .     |   .   |   .   |   .   |   .   
    E||-0h2---2---2-0-------------------|-------------------------X-------|
    B||-3-----3---3-3---0------/5-----5-|3-----------------------X-------|
    G||*2-----2---2-2---2------/4-----4-|2-------------------X---X-------|
    D||*------------------------0-------|---------0-0-0-0-0-0-X---X-------|
    A||---------------------------------|---------------------X-----------|
    E||---------------------------------|---------3-3-3-2-2-2-0-----------|…
  • Dm     Bb   C       Am   Bb    C     Am
    E------x------x-----x-----x-----x-----x-----x------|
    B------x------x-----x-----x-----x-----x-----x------|
    G-----10-----7-----9-----5-----7-----9-----5-------|
    D------x------x-----x-----x-----x-----x-----x------|
    A------x------x-----x-----x-----x-----x-----x------|
    E…
  • Intro & Verses:
    
    E|-|------------------------------------------------------|-|
    B|-|----12-12--12----12-12--12----12-12--12----11-11--11--|-|
    G|-|----11-11--11----11-11--11----11-11--11----11-11--11--|-|
    D|-|------------------------------------------------------|-|
    A|-|------------------------------------------------------|-|
    e|-|--11-----11----10-----10----9------9-----9------9-----|-|
    
    E|-|-----------------------------------------------------------------|-|
    B|-|---10-10--10--10-10--10--9-9--9--8-8--8--8-8--8--8-8--8--7-7--7--|-|
    G|-|---11-11--11--11-11--11--9-9--9--7-7--7--7-7--7--7-7--7--7-7--7--|-|
    D|-|-----------------------------------------------------------------|-|
    A|-|-----------------------------------------------------------------|-|
    e|-|--8-----8---7------7---7----7--7----7--6----6---5---5--5----5----|-|
    
    E|-|---------------------------------------|-|
    B|-|----5-5--5---5-5--5---5-5--5---5-5--5--|-|
    G|-|----7-7--7---7-7--7---6-6--6---6-6--6--|-|
    D|-|---------------------------------------|-|
    A|-|---------------------------------------|-|
    e|-|--5----5---5----5---5----5---5----5----|-|
    
    
    Verse…
  • Intro X 2:
    
    E|-|----5------0-4---|-|-|------5-----0-4----|-|
    B|-|--2----2-3-------|-|-|----2---2-3--------|-|
    G|-|--2--------------|-|-|----2--------------|-|
    D|-|-------------2---|-|-|--------------2----|-|
    A|-|--0--------------|-|-|----0--------------|-|
    e|-|-------------0---|-|-|--------------0----|-|…
  • Intro
    E|-|------------------------------|-|
    B|-|--2----------------2----------|-|
    G|-|--2----------------2----------|-|
    D|-|--2----------------2----------|-|
    A|-|--0----------------0----------|-|
    e|-|----3--2--1-----/3---3--2--1--|-|…
  • Verse riff
    -------------------------
    -------------------------
    --2---6h7----------------
    --2---7------------------
    -------------------------  play three times then
    -----------5-7-----------
    
    
    ---------------------
    ---------------------
    --2----6h7--6h7------
    --2----7----7--------
    ---------------------…
  • Intro
    play this four times
    
    -------------------------------------------------
    ----------------------------------------3--------
    --------5-5--------7-7-------7-7------0---0H4p0--
    ------2---3------4---4-----5---5----4------------
    ----3-----2----5-----5---7-----7--5--------------
    --5-------5--7-------7---------------------------
    
    
    Verse
    
    ---------------------------------------
    -----8-8-8----8-8-8----8-8-8-----8-8-8-
    -----7-7-7----7-7-7----7-7-7-----7-7-7-
    ---------------------------------------
    ---------------------7--------5--------
    ---5--------7--------------------------
    
    
    Chorus
    
    ----------------------
    ------3-3-------------
    -4-4--2-2--9--9------
    -x-x-------x--x-------
    -2-2-------7--7-------
    -3-3--2-2--8--8------
    
    
    Jam…
  • Beginning riff goes something like:
    e-------0/2---2-----0/2---2----------------|
    b-----------0------------0-----------------|
    g----2-----------2------------2------------|  repeat a butt-load of times
    d------------------------------------------|
    a------------------------------------------|
    E------------------------------------------|
    Verse…
  • Tuning: standard
    	Bridge(I guess. It’s the first part on the song)
    e|--------------------------------------------------------------------|
    B|----9---10--10----7-------------------------------------------------|
    G|----9----9--9-----7---7h9p7-----------------------------------------|
    D|---9----11--12---7---------9p7--------------------------------------|
    A|--7----9--------5---5----------5------------------------------------|
    E|--------------------------------------------------------------------|
    
    
    	Verse…
  • Intro Guitar & Riff 1:
    
        G#/D#  D/F#
    E|------------|
    B|------------|
    G|------------|
    D|--6-6-6--0--|
    A|--7-7-7--0--|
    e|--4-4-4--2--|
    
    Riff 2:
      G#/D#  D/F#
    E|----------|
    B|----------|
    G|----------|
    D|--6----0--|
    A|--7----0--|
    e|--4----2--|
    
    
    Lyrics:…
  • Intro & Verse:
    
         B/E    F/C	  D(Octave)
    E|-|---------------------------|-|
    B|-|---------------------3-----|-|
    G|-|-------------7-------0-----|-|
    D|-|-----4----5-------4--------|-|
    A|-|---2----3-------5----------|-|
    e|-|-0-------------------------|-|…
  • Intro & Verse & Chorus:
    
       G    A              G               A
    E|------------------------------------------|
    B|---------0---4/5--------------------------|
    G|------------------------4---6b--4---------|
    D|------7--------------5---------------7--5-|
    A|------------------------------------------|
    e|-3/5--------------------------------------|
    
    
    Lyrics:
    
    Up…
  • Intro & Part 1:
    
    E|-|----------------------------------------------------------------|-|
    B|-|----------------------------------------------------------------|-|
    G|-|------------------11----------------7--6------------------------|-|
    D|-|--------9-----9-----------11/-----7------3/4--7-----------------|-|
    A|-|-----7-----7----------8/9-------5----------------5/7--7--7--9/--|-|
    e|-|--5-------------------------------------------------------------|-|
    
    
    Transition…
  • Tuning: Standard
    
                 A                    B               C	  D                            
    e|-----------------------|------------------|------------|------------|
    B|--------3----3---------|----2------3-3----|-----3------|--------3---|
    G|--0h2--------2h4-4p2---|--3---3-----2-----|-----0------|----2---2-x4|
    D|--0---0---0----------0-|4-----4p2------0--|--2---------|--0---0-----|
    A|--0--------------------|------------------|--3----3----|------------|
    E|-----------------------|------------------|------------|------------|…
  • main lick
     e|---------------------------------|
     B|----0----2----3--2-----0------2--|
     G|----0----2----2--2-----0------2--|
     D|----0----2----2--2-----0------2--|
     A|-------0----------0---------0----|
     E|--3---------2--------3----2------|…
  • Intro: | D/F# G Bm | D/F# G Ab7 |
    
    E|-|------------|-|------------|-|
    B|-|------------|-|------------|-|
    G|-|--2--4---7--|-|--2--4---7--|-|
    D|-|--0--0---0--|-|--0--0---0--|-|
    A|-|------------|-|------------|-|
    e|-|--2--3---7--|-|--2--3---6--|-|
    
    
    Verses…
  • Intro – 
    Play 4 x                     then play this   
    -----------------------------|-----------------------------|
    -----------------------------|-----------------------------|
    ------6---4------------------|--7~~-------6--4-------------|
    -4------------0---6---0---4--|--7~~--------------0---6--4--|
    ------4---2------------------|--5~~-------4--2-------------|
    -2------------0---4---0---2--|-------------------0---4--2--|…
  • e-----2--x--x-----------------------------------------
    B-----3--x--x-----------------------------------------
    G-----2--x--x-----------------------------------------
    D-0---------------------------------------------------
    A--------------2-3-5----------------------------------
    E--------------------------------------------------…
  • VERSE:
    
    
    E----------------------3----------
    B--1-------3----1------2----------
    G--0-------0----0------3----------
    D--0h2p0---0----0h2p0--0----------
    A--3-------x----3-----------------
    E----------3----------------------…
  • Intro:
    
    E|-|------------------|-----------------|-----------------------|-|
    B|-|------------------|-----------------|-----------------------|-|
    G|-|------------------|-----------------|-----------------------|-|
    D|-|------------------|------0----------|-----------------------|-|
    A|-|---0-2---3/7/5-2--|---0-2--3-2-0----|---0-2--3/7-3/7-5-7-3--|-|
    e|-|--3----3----------|--3-----------3--|--3--------------------|-|
    
    E|-|-----------------|-|
    B|-|-----------------|-|
    G|-|-----------------|-|
    D|-|------0----------|-|
    A|-|---0-2--3-2-0----|-|
    e||---3-----------3--|-|
    
    I…
  • Intro: D5 or just D
    
    
    Dropped In D.
    
              D5                   E5/D
    E|-|-----------------------------------|-|
    B|-|-----------------------------------|-|
    G|-|-------7--7-7-------7--7-7--7/9-7--|-|
    D|-|-------7--7-7-------7--7-7--7/9-7--|-|
    A|-|-------5--5-5-------5--5-5--5/7-5--|-|
    D|-|-(0)0--0--0-0-0--0--0--0-0--0-0-0--|-|…
  • ~~~~~~Intro:        Could i have been, a parking lot attendant...
    E-----------------------------------------------------------------|
    B-----------------------------------------------------------------|
    G-----------------------------------------------------------------|
    D-------5--------5-----------4---------4--------------------------|
    A-----------------------------------------------------------------|
    E--3--------3----------2----------2-------------------------------|
    
    
    ~~~~Verse:…
  • Intro & Verse: Dmaj7 D/A
                          B5(all instruments)
    E||--2---2--2-2-2-2-2---------||-----------||
    B||--2h3-3--2-2-2-3-3---------||--2-2-2h3--||
    G||--2h4-4--2-2-2-4-4--4-4-4--||-----------||
    D||--------------------4-4-4--||-----------||
    A||--------------------2-2-2--||-----------||
    e||---------------------------||-----------||
    
    Verse:
    
    Roll…
  • INTRODUCTION RIFF/VERSE RIFF
    
    E-|----------------------- |
    B-|-----------------------*|
    G-|----------------------- |
    D-|---6-5--6-/-5--6----- |
    A-|---7-6--7-/-6--7-----*|
    E-|-0-----------------7--- |
    
    
    SONG CHORDS AND WORDS
    
    Abm…
  • Intro & Bass line:
    
    B||------------------|----------------|-----------------|----------------||
    G||-------------2-4--|--------2--6-4--|------------2-4--|--------2--6-4--||
    D||--4-----4-4-------|------4---------|--4-----4-4------|------4---------||
    A||----2-2-----------|--2-2-----------|----2-2----------|--2-2-----------||
    e||------------------|----------------|-----------------|----------------||
    
    Sax…
  • *intro...*                       *more intro...*
    e +-x---x---x------x--x--+         +-x---x---x------x--x--+
    b +-x---x---x------x--x--+         +-x---x---x------x--x--+
    g +-x---x---x------x--x--+         +-x---x---x------x--x--+
    d…
  • *Intro-Verse*
    E-------------------------------------------------------
    B----------------------------------0--------------------
    G-----2p0---2/4--------4-0-------5p0------4-4-4--2-0----
    D-----0-0--------------0-0--1/3-----------0-0-0--0-0----
    A-------------------------------------------------------
    E--2/~~~~~3--------…
  • Tuning:eadgbe-standard
    
    
    	*intro:strum each note 3 times.....up,down,up(maybe different..)
    e|---------------------------------------------------------------------------|
    B|---------------------------------------------------------------------------|
    G|---------------------------2-----------------------------------------------|
    D|--------------7----5---4-------2-------------------------------------------|
    A|---2-----5--------------------------4--------------------------------------|
    E|---------------------------------------------------------------------------|…
  • On LS the violin plays this part but you can play it on guitar.
    ------
    ------
    --10--
    ---x--
    ---x--
    --10--
    
    Then at the :15 mark, Dave plays this.
    ----------------------------------------
    ----------------------------------------
    --10-10-10-10--9-9-9-9--7-7-7-7-7-7-7-7-
    ---x--x--x--x--x-x-x-x--x-x-x-x-x-x-x-x-
    ---x--x--x--x--x-x-x-x--x-x-x-x-x-x-x-x-
    --10-10-10-10--8-8-8-8--3-3-3-3-3-3-3-3-
    For…
  • Intro & Verses:
               B/E        
    E|-|------------------------------------------|-|
    B|-|------------------------------------------|-|
    G|-|------------------------------------------|-|
    D|-|------4------4-------7------5----------4--|-|
    A|-|----1-----2------------4-------2----2-----|-|
    E|-|--2-----0-------3/5------5-------3--------|-|
    
    
    Verse:
    
    Oh,…
  • Intro:
    
    E|-|--------------------------------|-|
    B|-|--------------------------------|-|
    G|-|----------------------9-----7---|-|
    D|-|-----------3---5----7-----5-----|-|
    A|-|--5-5-5-5-----------------------|-|
    e|-|--------------------------------|-|…
  • Rhythm #1
    
       C C/B F  C C/G
    
    E--0--0--1--0--0--|
    B--1--1--1--1--1--|
    G--0--0--2--0--0--|
    D--2--0--3--2--2--|
    A--3--2--3--3--3--|
    E--0--0--1--0--3--|
    
    Strum on the fills.
    
    
    Bridge
    
      F#  G
    
    E--0--3--|
    B--3--3--|
    G--2--0--|
    D--0--0--|
    A--0--2--|
    E--2--3--|
    
    
    Rhythm…
  • e|---2--------------3----------------------|
    B|---3--------------3----------------------|
    G|---2--------------0----------------------|
    D|---0----4---4-----0----5---5-------------|
    A|---x-4h5-4h5-5----2-4h5-4h5-5------------|
    E|---x--------------3----------------------|
    
    (Play…
  • Intro: 
    
          Dm  C   Bm  A   Am  G    3 times this part       After the verse
    E|-|-------------------------|----------------------|----------------------|-|
    B|-|-------------------------|----------------------|----------------------|-|
    G|-|--10--9----7--6----5--4--|------4-------5-0--0--|------4-------5-4--0--|-|
    D|-|--0---0----0--0----0--0--|-------5--3-3-----3---|-------5--3-3-----3---|-|
    A|-|--X---X----X--X----X--X--|----------------------|----------------------|-|
    e|-|--10--8----7--5----5--3--|--3/5-----------------|--3/5-----------------|-|
    
    Verse:
    Play…
  • intro:
    
    it read:
    e-----7/-----------------7/------------------------------------------|
    B-----7/-----------------7/------------------------------------------|
    G--------------------------------------------------------------------|
    D--------------------------------------------------------------------|
    A---------3-x-5-x-7-x-3-x-5--55-------3-x-5-x-7-x-3-x-5--------------|
    E-00------x-x-x-x-x-x-x-x-x-----------x-x-x-x-x-x-x-x-x--------------|
    
    it…
Наверх