Аккорды «DC Talk»

DC Talk
Группа была основана в конце 80-х годов Тоби Маккиханом и Майклом Тэйтом. Немного времени спустя состав был укомплектован Кевином Смитом. В то время на музыкальной сцене был популярен рэп, и неудивительно, что ребята начали с этого стиля. Интересно было другое – вместо обычных для рэпперов "мазафак" парни использовали христианскую тематику. После переезда в Нэшвилл музыканты заключили контракт с лейблом "Forefront Records", на котором был издан их дебютный альбом "DC Talk". В 1990-м появилась вторая… Читать полностью... Группа была основана в конце 80-х годов Тоби Маккиханом и Майклом Тэйтом. Немного времени спустя состав был укомплектован Кевином Смитом. В то время на музыкальной сцене был популярен рэп, и неудивительно, что ребята начали с этого стиля. Интересно было другое – вместо обычных для рэпперов "мазафак" парни использовали христианскую тематику. После переезда в Нэшвилл музыканты заключили контракт с лейблом "Forefront Records", на котором был издан их дебютный альбом "DC Talk". В 1990-м появилась вторая пластинка коллектива, "Nu Thang". Диск разошелся тиражом свыше 100000 экземпляров, и популярность группы стала потихоньку расти. Серьезный прорыв к успеху команда сделала с выходом клипа "Rock Rap And Soul" – первого христианского рэп-видео. Диск 1992 года "Free At Last" 34 недели занимал первую строчку религиозных музыкальных чартов и по результатам продаж получил "платину". За этот альбом в 1994 году "DC Talk" получили "Grammy" в номинации "лучшая христианская группа". Кстати уже на данной пластинке саунд изменился от чистого рэпа к роковому звучанию. В 1995-м ребята кардинально поменяли стиль, выбросив на рынок свой самый известный альбом "Jesus Freak". На этот раз на диске звучала довольно тяжелая "альтернатива", а тексты стали более глубокими. Кроме заглавной композиции большую популярность получили также песни "Between You And Me" и "Colored People". Последующее американское турне прошло очень успешно, а тем временем "Jesus Freak" также получил "платину". На основании этих гастролей немного позже был выпущен концертник "Welcome To Freak Show!", изданный как в аудио, так и видеоварианте. За "Welcome.." группа в очередной раз получила награду "Grammy". В 1996-м "DC Talk" посетили Европу, где также приобрели себе большую армию поклонников. В том же году группа подписала контракт с "Virgin Records", взявшейся за продажи пластинок в обычных музыкальных магазинах, в то время как право на их распространение в христианских точках осталось за "Forefront". В 1998 году на свет появился очередной альбом, "Supernatural", материал для которого ребята готовили во Франции. И хотя на диске присутствовала целая серия хитов, таких как "Consume Me", "Into Jesus", "It's Killing Me", "Dive", "Supernatural", "My Friend", продажи пластинки по сравнению с "Jesus Freak" были намного меньше. Зато в первую неделю после выхода альбом побил в чартах релиз от "Marilyn Manson". Тур в поддержку "Supernatural" продолжался целых полтора года, в течение которых парни колесили по Европе и Северной Америке. По окончании гастролей, в 2000 году музыканты выпустили сборник лучших вещей "Intermission: Greatest Hits". После этого парни решили, что неплохо было бы заняться сольной карьерой. Макс выпустил парочку пластинок ("England Cowboy" и "Stereo Type Be"), Тэйт организовал одноименный проект "Tait", а Маккихан издал сольник "Momentum". При этом ребята не разбежались врозь, а продолжали поддерживать хорошие отношения друг с другом. В 2002 году в свет вышла компиляция из песен каждого из участников "DC Talk" под названием "Solo: The Tour". В дальнейшем музыканты изредка собирались вместе, но по большому счету проект "DC Talk" оставался в замороженном состоянии. Скрыть...
Популярные аккорды DC Talk:
алфавиту | просмотрам | случайно
  • Intro/Chorus
    ------------------------------------------------------------
    ------------------------------------------------------------
    ----2-2-2--------7-7/9-9------2-2-2---------7-7--6-6--4-4-4-
    ----2-2-2-4-4-4--5-5/7-7------2-2-2--4-4-4--5-5--4-4--2-2-2-
    ----------3-3-3----------------------3-3-3------------------
    
    Verse…
  • VERSE 1:
    E           B     A      E                B-A-G
    Under these circumstances they can hardly cope
    E            B        A      E                  B-A-G
    Notice their fleeting glances and thier lack of hope
    E       B…
  • Intro:
    E, Ab, D, G
    
    
    Verse:
    E             Ab           D         G          C             F#
    I heard your record on the telephone, it was my cousin Joan
                  A                C
    She picked it up from the…
  • Intro :
    E F# G#m
    
    Verse 1 :
    E        F#       G#m
    I keep trying to find a life
           E    F#       G#m
    On my own, apart from you
    E        F#       G#m
    I am the king of excuses
              E             F#             G#m
    I've…
  • INTRO
    E--------------------------------|--------------------------------------|
    B--7-----7-----7-----10--7-------|--7-----------------------------------|
    G--7-----7-----7-----7---7-------|--7h9-----9-----9/11--7-----7--7/9----|
    D-----0-----0-----0---------0----|-------7--7--7--7/9---5--5--5---------|
    A--------------------------------|--------------------------------------|
    E--------------------------------|--------------------------------------|
    
    E--------------------------------|--------------------------------------|
    B--7-----7-----7-----10--7-------|--7-----------------------------------|
    G--7-----7-----7-----7---7-------|--7h9-----9----7-----7--7/9-----------|
    D-----0-----0-----0---------0----|-------7--7--7/5--5--5----------------|
    A--------------------------------|--------------------------------------|
    E--------------------------------|--------------------------------------|
    
    (1,…
  • A(Ab)                      D(Db)
    Some people gotta learn the hardway,
            A(Ab)
    I guess I'm the kinda guy
                D(Db)
    That has to find out for myself.
    
    I had to learn the hardway, Father,
    A(Ab)…
  • Bm                Bm/A
    Help! I need somebody 
    G                 G/F#
    Help! Not just anybody
    E
    Help! You know I need someone,
    A
    Help!
    
    
    A                            C#m               F#m
    When I was younger, so…
  • Tuning: Standard
    E-A-D-G-B-E
    
    NOTE: No guitar during verse.
    
    Verse 1:
    A rainy Monday afternoon
    There's a funk over the city
    Everybody's movin' to a different tune
    Some are weak
    And some are strong
    And some are…
  • Intro:
    [F]   [F/Eb]   [Bb]   [F/C]   [C]   [Bb/C]   [C]  x2
    
    [F]Life was filled with guns and war,
    [F7]and everyone got trampled on the flo[Bb]or,
    I wish we'd [F/C]all be[C]en re[Bb/C]ad[C]y
    [F]Children died the days…
  • INTRO
    Was at the end of my rope, had nowhere to go
    Was at the end of my rope, I had nothing to show
    Until the day that I turned to you, was at the end
    
    A D A D A  2x
    
    VERSE 1:
    A                              D…
  • G                              C                             G
    Verse: That's great it starts with an earth quake. Birds snakes and
    Airplanes.
                         C
           You know I am not afarid.
           G…
  • 1st Verse:
    
    C          Fm
    Pages, Filled with the holy message
    Fm
    Sealed with a kiss from heaven
              C                  G
    On a scroll,  long ago
       
    C               Fm
    Phrases, words that were bound together
    Fm…
  • Intro:F-G-Dm-Bb-C
    
    F	     G
    In my mind I can see your face
    Dm		  B 		 G
    Love pours down in a shower of grace
    F			G
    People tell me that your just a dream
    Dm				       C-G-G 
    Faith is the evidence of things unseen
    
    Dm-C-G-G
    
    Dm…
  • E          G     E                 G  
    Hello good-bye I wanted to say but I guess I
    E              G           E     G   
    Don't have the strength to speak tonight
    E               G 
    It's tricky sometimes 
    E…
  • F#                                 G
    I saw it all from my bubble on the 15th floor
    (I was so unaware I sank into my letter chair)
    F#                              G   
    Upon my throne I was known as untouchable
    (The smoke…
  • Intro:D...To view riff for intro go down      
                                                                        
                           D                               
           I'm setting the stage for…
  • Drop D tuning:
    DADGBE
    
    Key
    /= slide up
    
    Verse 1:
    -----|---------||-
    -----|-------.-||-
    -----|---------||-
    -----|-------.-||-
    -----|---------||-
    -0-*-|---------||-
    
    *= hold 2 measures with flanger. Repeat several times
    
    Pre-…
  • Tuning-Standard
    E-A-D-G-B-E
    
    NOTE: During music interludes play either the intro or just the Em chord.
    
    Intro:
    E-0---------0---------
    B---3-0-2-----3-0-----
    G---------2-------2---
    D---------------------
    A---------------------
    E---------------------
    
    Verse…
  • Intro:
    Fm-Cm-Eb-Bb-Db-Cm-Fm
    
    Fm				       Db			
    A preacher shuns his brother cause his bride's a different color
    Bb		    Db	        Fm
    And this is not acceptable his Papa thaught him so
    Fm					Db
    It was love that…
  • Intro:
    Gm        5~                      5~
    Dm                                           5 4
    Am 5 6 7      5 6 7   3~  5 6 7       5 6 7      5 7
    
    Repeat, except change last note to:  
    Am 3 
    
    E  E   E D E9
    
    Am7…
  • Tuning-Standard
    E-A-D-G-B-E
    
    Intro:
    E---0---0-----0----0-----
    B--3---3-3---0-0----0-----
    G-4---4-----2-----1-------
    D-------------------------
    A-------------------------
    E-------------------------
    
    Verse 1:
    D…
  • Standard-tuned six-string acoustic.
    
    [chords]
    002200 A
    024400 B
    046600 C#m7
    032022 C
    035500 C
    057700 D
    022100 E
    022022 Em
    320022 G
    464544 G#7
           
    INTRO: C D A
           C D A
    
     C#m7…
  • INTRO:
    E-----------------------------------------------------3p2--2------
    B-----------------3------2---3-3/5-----------------3--3------3----
    G------1--------0------2---2------------1--------0----2--------2--
    D--------2----0------2--------------------2----0------0-----------
    A----2--------------------------------2---------------------------
    E--0--------3-----------------------0--------3--------------------
    
    E--3--3--]]
    B--3--3--]]
    G--0--0--]]
    D--2--0--]]
    A--3--1--]]
    E--------]]
    
    
    E-----------------------------------------------------------------
    B-----------------------------------------------------------------
    G---10^12-8--------------10^12-8----8-^12-10--10^12-8-------------
    D-----------10-8-----------------10-------------------10-8--------
    A----------------10-8-6------------------------------------10-8-6-
    E-----------------------------------------------------------------
    
    
    E-----------------------------------------------------------
    B--------------11^13--------------------11-11-11-11-11------
    G-10^12-8----8--------7/8-8-8-8-8-------10-10-10-10-10-8-10-
    D---------10----------7/8-8-8-8-8--8-7--8--8--8--8--8--8-10-
    A-----------------------------------------------------------
    E-----------------------------------------------------------
    
    
    E----------------------------------------]]
    B----------------------------------------]]
    G-7/8-8-8-8-8-------10^12-8--------------]]
    D-7/8-8-8-8-8--8-7----------10-8---------]]
    A--------------------------------10-8-6--]]
    E----------------------------------------]]
    
    
    BRIDGE:
    E----------------------------------------------------------
    B----------------------------------------------------------
    G---------------8---------------9---------------8-8--10-10-
    D--8-X-X-X-X-X--8-(8)X-X-X-X-X--8-(8)X-X-X-X-X--8-8--10-10-
    A--8-X-X-X-X-X--6-(8)X-X-X-X-X--6-(8)X-X-X-X-X--6-6--8--8--
    E--6-X-X-X-X-X--6-(6)X-X-X-X-X--6-(6)X-X-X-X-X--6-6--8--8--
    
    
    E----------------------------------------------------------]]
    B----------------------------------------------------------]]
    G---------------8---------------9---------------8-8--10-10-]]
    D--8-X-X-X-X-X--8-(8)X-X-X-X-X--8-(8)X-X-X-X-X--8-8--10-10-]]
    A--8-X-X-X-X-X--6-(8)X-X-X-X-X--6-(8)X-X-X-X-X--6-6--8--8--]]
    E--6-X-X-X-X-X--6-(6)X-X-X-X-X--6-(6)X-X-X-X-X--6-6--8--8--]]
    
    
    CHORUS:
    E-----------------------------------------------------------
    B--------------------11-11-11-11-11-------------------------
    G--7/8-8-8-8-8-------10-10-10-10-10-8-10--7/8-8-8-8-8-------
    D--7/8-8-8-8-8--8-7--8--8--8--8--8--8-10--7/8-8-8-8-8--8-7--
    A-----------------------------------------------------------
    E-----------------------------------------------------------
    
    
    E--------------------------------------------------------------
    B--11-11-11-11-11-------------------------11-11-11-11-11-------
    G--10-10-10-10-10-8-10--7/8-8-8-8-8-------10-10-10-10-10-8-10--
    D--8--8--8--8--8--8-10--7/8-8-8-8-8--8-7--8--8--8--8--8--8-10--
    A--------------------------------------------------------------
    E--------------------------------------------------------------
    
    
    E--------------------
    B--------------------
    G-7/8-8-8-8-8--------
    D-7/8-8-8-8-8--8-7---
    A--------------------
    E--------------------
    
    
    LEAD-IN
    E-----------------------------------------------------------------
    B-----------------------------------------------------------------
    G---10^12-8--------------10^12-8----8-^12-10--10^12-8-------------
    D-----------10-8-----------------10-------------------10-8--------
    A----------------10-8-6------------------------------------10-8-6-
    E-----------------------------------------------------------------
    
    
    E---------------------]]
    B--------------11^13--]]
    G-10^12-8----8--------]]
    D---------10----------]]
    A---------------------]]
    E---------------------]]
    
    
    BRIDGE
    
    
    CHORUS
    
    
    SOLO(This…
  • Intro:
    Dm-C-G
    
    Dm                                C-G
    What if I stumble? What if I fall?
    
    Dm
    Is this one for the people?
        C              G
    Is this one for the Lord?
          Dm                    C            G
    Or do I simply…
  • Tuning: Standard
    E-A-D-G-B-E
    
    Intro: C Am7 Am Em C Am7 Am D
    
    Verse 1:
    C             Am7
    Haunted by a jaded past
    Am                  Em
    Never thought that love could last
    C               Am7         Am  D
    Hope…
  • Intro: Em . . . Em . . . Em . . D A . . . 2x
     
    e--------------            e--------------
    B-----0-----0--     B-----0--------
    G---0----2-----  3x then   G---0----2-----
    D-2------------            D-2------------
    A--------------…
  • INTRO:
    E D E (x2)
    E G A F (x2)
    
    VERSE 1:
    E G A F
    E G A F
    E G A C
    E G A C
    
    CHORUS:
    E A E A
    E A E A
    A C
    A C
    A C E
    
    E G A C (x2)
    
    VERSE 2:
    E G A F
    E G A F
    E G A C
    E G A C
    
    CHORUS
    
    G A F
    E G
    G-A-F-E (x2)
    
    CHORUS
  • INTRO:
    
       E       G         A
    e|-----------------|-----------------|
    B|-----------------|-----------------|
    G|-----1-----------|-----6---7---9---|
    D|-2-----2-----7---|-----------------|
    A|---2-------5---5-|---7---7---7-----|
    E|---------3-------|-5---------------|…
  • C, C7M  , C, C7M   (x2)
    F, F7M  , F, F7M   (x2)
    Then on the pre chorus it goes: Eb, F
    
    Hope and praying,  I've been waiting,
    everybody, needs somebody to love.
    There's no question, straight from Heaven,…
  • Intro: G-Em-Eb-F/D      2X
    
    Em                 Bm
    Sorrow is a lonely feeling
    A
    Unsettled is a painful place
    Em                       Bm
    I've lived with both for far too long now
    A
    Since we've parted ways
    
    Em…
Наверх