Аккорды «Dead Boys»

Dead Boys
Dead Boys - одна из первых американских панк-команд, сформированная бывшими участниками Rocket From The Tombs в 1975 году, в Кливлэнде, Огайо, США. В 1976 Dead Boys перебираются в Нью Йорк, где быстро осваиваются и приобретают собственный стиль выступлений: богохульсво, пошлые жесты и телодвижения были нормой, а солист Стив Баторс не один раз травмировал свой живот микрофонной стойкой. Группа часто играла в легендарном клубе CBGB's, а к 1977 году у Dead Boys был готов дебютный альбом Young, Loud… Читать полностью... Dead Boys - одна из первых американских панк-команд, сформированная бывшими участниками Rocket From The Tombs в 1975 году, в Кливлэнде, Огайо, США. В 1976 Dead Boys перебираются в Нью Йорк, где быстро осваиваются и приобретают собственный стиль выступлений: богохульсво, пошлые жесты и телодвижения были нормой, а солист Стив Баторс не один раз травмировал свой живот микрофонной стойкой. Группа часто играла в легендарном клубе CBGB's, а к 1977 году у Dead Boys был готов дебютный альбом Young, Loud and Snotty (англ. - "Молодые, Громкие и Злые), спродюсированный Женей Раваном и вышедший на лейбле Sire Records. Песня "Sonic Reducer" с этого альбома названа журналом All Music Guide "одним из величайших панк-гимнов всех времён". Компания Sire заставила музыкантов сменить внешний вид и звучание, чтобы более соответствовать тогдашним музыкальным тенденциям США. Это и привело к распаду группы в 1979 году. Через несколько месяцев после роспуска, Dead Boys пришлось воссоединиться и записать live-альбом, и тем самым выполнить контрактные обязательства. В качестве мести лейблу, Баторс намеренно спел с выключенным микрофоном и полученная запись была непригодна к выпуску. Позднее материал вышел на BOMP!records, для чего Баторс переписал вокал в студии. Позднее Баторс основал Lords of the New Church с Брайаном Джеймсом из The Damned и Дейвом Треганна из Sham 69. В 80-х Группа несколько раз собиралась для проведения концертов. Они выпустили Younger, Louder and Snottier в 1989, включавшем в себя демо и жёсткие миксы песен с дебютного альбома. В 1990 году, во Франции, Баторс попал в автокатастрофу и скончался от полученных ранений. В 2004 году группа ещё раз воссоединилась (естественно, без Баторса) для концерта у себя на родине, в Кливлэнде. В 2005 году группа провела концерт в CBGB's. В том же году в хэллоуин, в честь воссоединения Dead Boys отыграли большой сольный концерт... Состав: Stiv Bators - вокал Jimmy Zero - ритм-гитара Cheetah Chrome - лидер-гитара Jeff Magnum - бас Johnny Blitz - ударные Скрыть...
Популярные аккорды Dead Boys:
алфавиту | просмотрам | случайно
  • tuning: stadard
    
    intro
    |--------------------------------------------------------------------------|
    |--------------------------------------------------------------------------|
    |--------4-----------4-----------7-----------------------4-----------4--2--|(or---4-----)
    |-----4-----4-----4-----4-----7-----7--------7--------5-----5-----5--------|(--5-----7--)
    |--2-----------2-----------5--------------7-----7--------------------------|
    |--------------------------------------5-----------3-----------3-----------|
    |
    |--------------------------------------------------------------------------|
    |--------------------------------------------------------------------------|
    |--------------------------------------------2---2-4----------------(4)-2--|
    |--------------------------------------2-h4--------------------------------|
    |--2----------------(2)-4--5-----------------------------------------------|
    |--------------------------------------------------------------------------|
    
    |--------------------------------------------------------------------------------------------------|
    |--------------------------------------------------------------------------------------------------|
    |--------4-----------4-----------4-----------4-----------7-----------------------4-----------4--2--|
    |-----4-----4-----4-----4-----4-----4-----4-----4-----7-----7--------7--------5-----5-----5--------|
    |--2-----------2-----------2-----------2-----------5--------------7-----7--------------------------|
    |--------------------------------------------------------------5-----------3-----------3-----------|
    |
    |--------------------------------------------------------------------------------5-----------5--5--|
    |--------------------------------------------------------------3--5-----5-/7-----------------------|
    |--4-----------------------------------------------------4-----------------------------------------|
    |--------------------------------------------------------------------------------------------------|
    |--------------------------------------------------------------------------------------------------|
    |--------------------------------------------------------------------------------------------------|
    
    |--------------------------------------------------------------------------------------------------|
    |--------------------------------------------------------------------------------------------------|
    |--------4-----------4-----------4-----------4--2--------4-----------4-----------4-----------4--2--|
    |-----4-----4-----4----(4)----5-----5-----5-----------4-----4-----4-----4-----5-----5-----5--------|
    |--2-----------2-----------------------------------2-----------2-----------------------------------|
    |--------------------------3-----------3-----------------------------------3-----------3-----------|
    |
    |--7-----------------------------7-----10-12----12b------------12b12---101210----------10----------|
    |-----------------------------------------------------------------------h-----------------12----10-|
    |--------------------------------------------------------------------------------------------------|
    |--------------------------------------------------------------------------------------------------|
    |--------------------------------------------------------------------------------------------------|
    |--------------------------------------------------------------------------------------------------|
    
    |--------------------------------------------------------------------------------------------------|
    |--------------------------------------------------------------------------------------------------|
    |--------4-----------4-----------7-----------------------------------4-----------7-----------------|
    |-----4-----4-----4-----4-----7-----7--------7-----------9--------5-----5-----7-----7--------7-----|
    |--2-----------2-----------5--------------7-----7-----9-----9--------------5--------------7-----7--|
    |--------------------------------------5-----------7-----------3-----------------------5-----------|
    |
    |--------------------------------------------------------------------------------------------------|
    |--12----------------------------12----12-10-------------------------------------------------------|
    |--------------------------------------------11-9b-------9-----9-----------------------------------|
    |-----------------------------------------------------------12----12-------------9-----12-9--------|
    |-----------------------------------------------------------------------------------------------12-|
    |--------------------------------------------------------------------------------------------------|
    
    |--------------------------------------------------------------------------------------------------|
    |--------------------------------------------------------------------------------------------------|
    |-------(4)----------4-----------7--------------7-----------------------5--------7-----------------|
    |----(4)---(4)----4-----4-----7-----7--------7-----------9--------4--4--------7-----7--------7-----|
    |--2-----------2-----------5--------------7-----------9-----9--------------5--------------7----(7)-|
    |--------------------------------------5-----------7-----------3-----------------------5-----------|
    |
    |--------------------------------------------------------------------------------------------------|
    |-----------------------------------------------------10-------------------------------------------|
    |-----------------------------------------9-----9b----------9b-r-----------------------------------|
    |--9-----------------------------9-----12-------------------------12-------------9-----12-9--------|
    |-----------------------------------------------------------------------------------------------12-|
    |--------------------------------------------------------------------------------------------------|
    
    |--------------------------|
    |--------------------------|
    |--------4-----------4-----|
    |-----4-----4-----4--------|
    |--2-----------2--------4--|
    |--------------------------|
    |
    |--------------------------|
    |--------------------------|
    |--------------------------|
    |--9-----------------------|
    |--------------------------|
    |--------------------------|
    
    
    |--------------------------------------------------------------------------|
    |--------------------------------------------------------------------------|
    |--------4-----------4-----------7-----------------------4-----------4--2--|
    |-----4-----4-----4----(4)----7-----7--------7--------5-----5--5--5--------|
    |--2-----------2-----------5--------------7-----7--------------------------|
    |--------------------------------------5-----------3-----------------------|
    |…
  • Tuning: Standard
                                             
    Intro
                                               
    E--------------------------|
    B--------------------------|
    G------------0-------------|
    D----------0---------------|…
  • Tuning=Standard
    
    1st guitar:
    |-----------1-----------------------1--------------------------------------------------------------|
    |--------3-----3-----------------3-----3--------------------3-----------------------3-----2--------|
    |-----2-----------2----2------2-----------2-----2--------3--------3-----3--------2--------------2--|
    |--0-----------------3-----0--------------------------3-----------------------2--------------------|
    |-------------------------------------------3------1-----------------1------0----------------------|
    |--------------------------------------------------------------------------------------------------|
    
    1st…
  • Tuning: Standard
    
    Intro
    
    E-----------------|
    B-----------------|
    G-2-2-------------|
    D-2-2-------------| x 8
    A-0-0-3-2-0-------|
    E-----------3-----|
    
    E-------------------------|
    B-------------------------|
    G-2-2---------------------|
    D-2-2---------------------|…
  • Tuning: Standard
    
    E--------------------------------------------------------|
    B--------------------------------------------------------|
    G-4-4-4-4-4-4--4-4-4-4-4-4--2-2-2-2-2-2-2-2-2-2-2-2-2----|   X 2
    D-4-4-4-4-4-4--4-4-4-4-4-4--2-2-2-2-2-2-2-2-2-2-2-2-2----|
    A-2-2-2-2-2-2--0-0-0-0-0-0--0-0-0-0-0-0-0-0-0-0-0-0-0----|
    E--------------------------------------------------------|…
  • e|---------------|
    b|---------------|
    g|---------------|let that last f ring and repeat
    d|-------2p0---3-|
    a|-0-3p0-----3---|
    e|---------------|
    
    
    then the chords |Am|F|D|G| I like to play the real chords but in…
  • Tuning: Standard
    
    
    E-----------------------------------------------------|
    B-----------------------------------------------------|
    G---7-7-7-7-7-2-2-2-2-2---5-5---5-----10-10----10-----|
    D---7-7-7-7-7-2-2-2-2-2---5-5-5-5-5---10-10-10-10-10--|…
  • Tuning: Standard
    
    
    Guitar 1
    
         E    E    E E
    E-----------------------------------------|
    B-----------------------------------------|
    G----9----9----9-9------------------------|
    D----9----9----9-9------------------------|…
  • INTRO
    Played 2 Times
    e-----------------------------------------------------------------------|
    B-----------------------------------------------------------------------|
    G---------------------------------6/7-7\6/7-77-6/7-7\6/7-77-------------|
    D---------------------------------4/5-5\4/5-55-4/5-5\4/5-55-------------|
    A-4/5-5\4/5-55-4/5-5\4/5-33---------------------------------------------|
    E-2/3-3\2/3-33-2/3-3\2/3-33---------------------------------------------|
    
    VERSE
    Played…
  • Tuning: Standard
    
    
    E-----------------------------------------------------|
    B------------------------------3-----3----------------|
    G-------------------2--2~~-----2-2---2-2--------------|
    D--2-2-2-2-2-2-2-2--2--2~~-----0-2---0-2--------------|…
Наверх