Аккорды «Deep Purple»

Deep Purple
Deep Purple — британская рок-группа, играющая в жанре hard rock, образовалась в феврале 1968 года (сначала — под названием Roundabout). В апреле того же года название было изменено на Deep Purple. Наряду с Black Sabbath, Uriah Heep и Led Zeppelin считается одной из самых заметных и влиятельных рок-групп в «тяжелой музыке» 1970-х годов. В мире продано свыше 100 миллионов копий их альбомов, из которых около 7,5 миллионов копий - в США. Deep Purple оказали огромнейшее влияние на возникновение и… Читать полностью... Deep Purple — британская рок-группа, играющая в жанре hard rock, образовалась в феврале 1968 года (сначала — под названием Roundabout). В апреле того же года название было изменено на Deep Purple. Наряду с Black Sabbath, Uriah Heep и Led Zeppelin считается одной из самых заметных и влиятельных рок-групп в «тяжелой музыке» 1970-х годов. В мире продано свыше 100 миллионов копий их альбомов, из которых около 7,5 миллионов копий - в США. Deep Purple оказали огромнейшее влияние на возникновение и развитие вышеуказанного жанра, а также на его последователей, таких, как Scorpions, AC/DC, Van Halen, Kiss и многих других. В стилистике группы, стандартный набор музыкальных средств выразительности, таких как виртуозные импровизации и затяжные соло, расширен использованием симфонического оркестра (Concerto For Group and Orchestra) или сложными аранжировками. В концертных выступлениях встречаются длительные (более 10 минут) инструментальные фрагменты с обилием соло и импровизаций (например, на концертном альбоме Deep Purple 1972 года Made In Japan). Подобный стиль сохранился у ещё одной легендарной группы - Uriah Heep. Музыканты "классического" состава Deep Purple (в частности, гитарист Ричи Блэкмор (Ritchie Blackmore), клавишник Джон Лорд (Jon Lord), барабанщик Иэн Пэйс (Ian Paice)) считаются инструменталистами-виртуозами, в особенности гитарист Ritchie Blackmore. Заметен так же, такой невероятный факт, что за какой то год, 1972-ой и даже меньше того, из разряда групп городского и штатного масштаба, Deep Purple превратились в группу европейского и чуть позже интернационального масштаба. Составы Deep Purple: За 40-летнюю историю существования группы её состав неоднократно менялся. Ударник Иэн Пэйс (Ian Paice) является единственным музыкантом, участвовавшим во всех составах Deep Purple. Составы Deep Purple принято нумеровать Mark X (сокращённо Mk X), где X — номер состава. Существуют два разных способа нумерации — хронологический и персональный. Первый даёт на два состава больше из-за того, что в 1984 и 1992 годах группа возвращалась к составу Mark II. Из-за этой неопределённости фанаты группы часто называют составы по имени участников, которые были заменены. Состав Mark II (1969-1973, 1984-1988, 1992-1993) - Mark II (Гиллан, Блэкмор, Гловер, Лорд, Пэйс) Ian Gillan : Vocals, congas, & harmonica Jon Lord : Keyboards Ritchie Blackmore : Guitar Roger Glover : Bass, synthesizer Ian Paice : Drums; - считается "классическим" составом Deep Purple, поскольку именно в этом составе группа приобрела всемирную известность и записала ставшие классикой hard rock альбомы "In Rock", "Fireball" и "Machine Head". Впоследствии этот состав собирался ещё дважды и записал в общей сложности 7 студийных альбомов из 18, выпущенных группой к настоящему моменту. 1976—1984 группа не существовала. В 1980 Род Эванс (Rod Evans) выступал с группой малоизвестных музыкантов под названием "Deep Purple", но выступления были вскоре прекращены по решению суда. Таким образом, в общей сложности в составе Deep Purple выступали 14 человек: 1. Род Эванс (Rod Evans: Vocals 1968—1969) 2. Ник Симпер (Nick Simper: Bass, vocals 1968—1969) 3. Ричи Блэкмор (Ritchie Blackmore: Guitar 1968—1975, 1984—1993) 4. Джон Лорд (Jon Lord: Keyboards, vocals, string & woodwind arrangements 1968—1976, 1984—2002) 5. Иэн Пэйс (Ian Paice: Drums 1968—1976, с 1984 по сей день) 6. Иэн Гиллан (Ian Gillan: Vocals, congas, & harmonica 1969—1973, 1984—1989, с 1992 по сей день) 7. Роджер Гловер (Roger Glover: Bass, synthesizer 1969—1973, с 1984 по сей день) 8. Дэвид Ковердейл (David Coverdale: Vocals 1973—1976) 9. Гленн Хьюз (Glenn Hughes: Bass, vocals 1973—1976) 10. Томми Болин (Tommy Bolin: Guitar, vocals 1975—1976) 11. Джо Линн Тёрнер (Joe Lynn Turner: Vocals 1989—1992) 12. Джо Сатриани (Joe Satriani: Guitar 1993—1994) 13. Стив Морс (Steve Morse: Guitarс 1994 по сей день) 14. Дон Эйри (Don Airey: Keyboards с 2002 по сей день) или: Mark I (1968-1969) Rod Evans : Vocals Jon Lord : Keyboards, vocals, string & woodwind arrangements Ritchie Blackmore : Guitar Nick Simper : Bass, vocals Ian Paice : Drums Mark II (1969-1973, 1984-1988, 1992-1993) Ian Gillan : Vocals, congas, & harmonica Jon Lord : Keyboards Ritchie Blackmore : Guitar Roger Glover : Bass, synthesizer Ian Paice : Drums Mark III (1973-1975) David Coverdale : Vocals Jon Lord : Keyboards Ritchie Blackmore : Guitar Glenn Hughes : Bass, vocals Ian Paice : Drums Mark IV (1975-1976) David Coverdale : Vocals Jon Lord : Keyboards Tommy Bolin : Guitar, vocals Glenn Hughes : Bass, vocals Ian Paice : Drums Mark V (1990-1991) Joe Lynn Turner : Vocals Jon Lord : Keyboards Ritchie Blackmore : Guitar Roger Glover : Bass Ian Paice : Drums Mark VI (1993-1994) Ian Gillan : Vocals Jon Lord : Keyboards Joe Satriani : Guitar Roger Glover : Bass Ian Paice : Drums Mark VII (1994-2003) Ian Gillan : Vocals Jon Lord : Keyboards Steve Morse : Guitar Roger Glover : Bass Ian Paice : Drums Mark VIII (2004-present) Ian Gillan : Vocals Don Airey : Keyboards Steve Morse : Guitar Roger Glover : Bass Ian Paice : Drums ____________________________________________________________________ Биография Deep Purple. Предыстория: "Roundabout" (1967–68) Инициатором создания группы и автором изначальной концепции стал барабанщик Крис Кёртис (Chris Curtis), в 1966 году ушедший из The Searchers и намеревавшийся возобновить карьеру. В 1967 году он пригласил на должность менеджера антрепренёра Тони Эдвардса (Tony Edwards), который в то время работал на Вест-Энде в собственном фамильном агентстве Alice Edwards Holdings Ltd, но участвовал и в музыкальном бизнесе, помогая певице Эйше (Ayshea, позже — ведущая телешоу Lift Off). В тот момент, когда Chris Curtis обдумывал планы своего возвращения, на распутье оказался и клавишник Джон Лорд (Jon Lord): он только что ушёл из состава rhythm and blues'овой группы The Artwoods, собранной Артом Вудом (Art Wood - брат Ron Wood'a, гитариста The Rolling Stones) и вошёл в гастрольный состав The Flowerpot Men, группы, созданной исключительно для раскрутки хита Let’S Go To San Francisco. На вечеринке у знаменитой «искательницы талантов» Викки Уикхэм (Vicky Wickham) он случайно познакомился с Chris Curtis'ом, и тот увлёк его проектом новой группы, участники которой приходили бы и уходили «как на карусели»: отсюда и название "Roundabout". Вскоре, однако, оказалось, что Chris Curtis живёт в своём, «кислотном» мире. Прежде чем покинуть проект, третьим участником которого должен был стать Джордж Робинс (George Robins), в прошлом — бас-гитарист группы The Cryin' Shames, Chris Curtis заявил, что у него есть на примете для Roundabout «…фантастический гитарист — англичанин, который живёт в Гамбурге». Гитарист Ричи Блэкмор (Ritchie Blackmore), несмотря на юный возраст, успел к этому времени поиграть с такими музыкантами, как Джин Винсент (Gene Vincent), Mike Dee, The Jaywalkers, Скримин Лорд Сатч (Screaming Lord Sutch), The Outlaws (студийной группе продюсера Джо Мика (Joe Meek) а так же Neil Christian и The Crusaders — благодаря которым и оказался в Германии (где основал и собственный коллектив, The three Musketeers). Первая попытка привлечения Ritchie Blackmore в Roundabout совпала с исчезновением Chris Curtis (который объявился затем в Ливерпуле) и оказалась неудачной, но Tony Edwards (со своей чековой книжкой) проявил настойчивость, и вскоре — в декабре 1967 года — гитарист вновь прилетел на прослушивание из Гамбурга. Jon Lord: "Ritchie Blackmore приехал ко мне на квартиру с акустической гитарой, и мы тут же написали And The Address и Mandrake Root. Мы провели чудесный вечер. Сразу же стало ясно, что дураков он вокруг себя не потерпит, но это мне и понравилось. Выглядел он мрачно, но — таким ведь был и всегда". Вскоре в состав группы вошли бассист Дэйв Кёртисс (экс- Dave Curtiss & Тhe Tremors) и проживавший в тот момент во Франции барабанщик Бобби Вудман (Robert William Woodman - Bobby Woodman), который в 1950-х годах под псевдонимом Бобби Кларк (Bobbie Clarke) играл в группе Винса Тейлора (Vince Taylor) - The Playboys, а также с Марти Уайлдом (Marty Wilde) в WildCATs. «Ritchie Blackmore увидел Bobby Woodman'а в составе группы Джонни Холлидея (Johnny Hallyday) и был поражён тем, что тот использует сразу две бочки в своей установке», — вспоминал Jon Lord. После ухода Dave Curtiss'а, Jon Lord и Ritchie Blackmore возобновили поиск басиста. «Выбор пал на Ника Симпера (Nick Simper) просто потому, что он тоже играл в The Flowerpot Men, — вспоминал Jon Lord. — Кроме того, он был неравнодушен к кружевным рубашкам, что понравилось Ritchie Blackmore'у. Ritchie Blackmore вообще больше внимания придавал внешней стороне дела». Nick Simper (успевший поиграть и в Johnny Kidd & The New Pirates), по его собственному признанию, не принимал предложение всерьёз до тех пор, пока не узнал, что в новой группе задействован Bobby Woodman, которого он боготворил. Но как только квартет начал репетиции в Дивз-Холле, большой ферме на юге Хартфордшира, стало ясно, что именно барабанщик выбивается из общей картины. Расставание было нелегким, потому что личные отношения у всех с ним были прекрасными. Параллельно продолжался и поиск вокалиста: группа в числе прочих прослушала Рода Стюарта (Rod Stewart), который, по воспоминаниям Nick Simper'а, «был ужасен», и даже пыталась переманить Майка Харрисона (Mike Harrison) из Spooky Tooth, который, как вспоминает Ritchie Blackmore, «не хотел об этом и слушать». Отказался и имевший контрактные обязательства Терри Рид (Terry Reid). В какой-то момент Ritchie Blackmore решил вернуться в Гамбург, но Jon Lord и Nick Simper уговорили его остаться — по крайней мере на время репетиций в Дании, где Jon Lord уже был хорошо известен. После ухода Bobby Woodman'а, в группу пришли 22-летний вокалист Род Эванс (Rod Evans) и барабанщик Иэн Пэйс (Ian Paice): оба до этого играли в The MI5 (группе, которая позже под названием The Maze выпустила два сингла в 1967 году). В новом составе, под новым названием но по-прежнему под руководством менеджера Tony Edwards'а, квинтет провёл короткое турне по Дании. О том, что название нужно менять, все участники группы договорились заранее. В Дивз-Холле мы составили список возможных вариантов. Чуть не выбрали "Orpheus". "Concrete God" — это нам показалось очень уж радикально. Был в списке и "Sugarlump". А однажды утром там появился новый вариант — "Deep Purple". После напряжённых переговоров выяснилось, что внёс его Ritchie Blackmore. По той причине, что это была любимая песня его бабушки. Первое время участники группы не имели чёткого представления о том, какое выберут направление, но постепенно главным примером для подражания стали для них Vanilla Fudge. Jon Lord был потрясён концертом группы в клубе Speakeasy и целый вечер провёл в беседе с вокалистом и органистом Марком Стайном (Mark Stein), расспрашивая о технике и трюках. Tony Edwards, по собственному признанию, совершенно не понимал ту музыку, что начинала создавать группа, но верил в чутье и вкус своих подопечных. Сценическое шоу группы было разработано в расчёте на Ritchie Blackmore'а-шоумена (Nick Simper рассказывал позже, что провёл много времени у зеркала рядом с Ritchie Blackmore, повторяя его пируэты). Jon Lord: "Ritchie Blackmore с первых же дней поразил меня своими выкрутасами. Он выглядел сказочно, почти как танцор балета. Это была школа середины 60-х: гитара за голову… все как у Джо Брауна!… (Joe Brown)" Участники группы оделись в бутике "Mr Fish" Tony Edwards'а, за его же деньги. «Одежда эта выглядела очень красиво, но минут через сорок начинала расползаться по швам… Некоторое время мы себе страшно нравились, но со стороны выглядели ужаснейшими пижонами», — говорил Jon Lord. Mark I (1968-1969) Первый состав Deep Purple (Эванс, Лорд, Блэкмор, Симпер, Пэйс) Rod Evans : Vocals Jon Lord : Keyboards, vocals, string & woodwind arrangements Ritchie Blackmore : Guitar Nick Simper : Bass, vocals Ian Paice : Drums Первая возможность выступить перед большой аудиторией представилась для группы в апреле 1968 года в Дании. Это была знакомая для Jon Lord территория (за год до этого он играл здесь с St Valentine’s Day Massacre), кроме того, Дания находилась в стороне от большой rock-сцены, что устраивало музыкантов. «Мы решили начать, как Roundabout, — вспоминал Jon Lord, — а в случае неудачи превратиться в Deep Purple». Согласно другой версии Nick Simper - название поменялось на борту парома: «Tony Edwards, естественно, называл нас Roundabout. Но тут вдруг подошёл к нам репортёр, спросил, как мы называемся, и Ritchie Blackmore ответил: Deep Purple». Датская публика оставалась в неведении относительно этих манёвров. Первый концерт группа провела как Roundabout, но при этом на постерах были упомянуты The Flowerpot Men и The Artwoods. Deep Purple постарались произвести на публику сильнейшее впечатление и, как вспоминает Nick Simper, имели «ошеломляющий успех». Ian Paice оказался единственным, у кого об этом турне остались мрачные воспоминания. «Из Харвича в Эсберг мы направились морем. Требовалось разрешение на работу в стране, а бумаги у нас были далеко не в полном порядке. Из порта меня в полицейской машине с решётками отвезли прямиком в участок. Я подумал: хорошенькое начало! По возвращении от меня воняло псиной». Весь материал дебютного альбома "Shades of Deep Purple" был создан за два дня, в течение почти непрерывной 48-часовой студийной сессии в древнем особняке Хайли (Балькомб, Англия) под руководством продюсера Дерека Лоуренса (Derek Lawrence), которого Ritchie Blackmore знал ещё по совместной работе с Джоном Миком (Joe Meek). В июне 1968 года на Parlophone Records вышел первый сингл группы Hush, композиция американского country-певца Джо Саута (Joe South). Однако, за основу группа взяла версию Билли Джо Ройала (Billy Joe Royal), с которой группа только и была в тот момент знакома. Идея использовать Hush в качестве стартового релиза принадлежала Jon Lord'у и Nick Simper'у (вещь была очень популярна в лондонских клубах), аранжировал же её Ritchie Blackmore. В США сингл поднялся до 4 места, причём огромную популярность имел в Калифорнии. Лорд считает, что причиной тому отчасти было удачное совпадение: в этом штате в те дни широкое распространение получила разновидность «acid» под названием «Deep Purple». В Британии сингл успеха не имел, но здесь группа дебютировала на радио в программе "Top Gear" Джона Пила: их выступление произвело на публику и специалистов сильное впечатление. Второй альбом "The Book Of Taliesyn" группа сконструировала по изначальной формуле, основные надежды связав с кавер-версиями. Kentucky Woman и River Deep — Mountain High имели умеренный успех, но его оказалось достаточно, чтобы протолкнуть пластинку в американскую «двадцатку». Уже сам по себе тот факт, что альбом, вышедший в США в октябре 1968 года, появился в Англии лишь 9 месяцев спустя (причем без всякой поддержки со стороны рекорд-компании), свидетельствовал о том, что EMI утратила интерес к группе. «В США мы сразу же заинтересовали большой бизнес, — вспоминал Nick Simper. — В Британии EMI, эти глупые старички, не сделали для нас ничего». Почти всю вторую половину 1968 года Deep Purple провели в Америке: здесь — при посредстве продюсера Derek Lawrence'а — они подписали контракт с лейблом Tetragrammaton Records, финансировавшимся комедийным актёром Биллом Косби (Bill Cosby). Уже на второй день пребывания группы в США один из приятелей Bill Cosby, Хью Хефнер(Hugh Hefner), пригласил Deep Purple к себе в Playboy Club. Выступление группы в программе "Playboy After Dark" остаётся одним из самых курьезных моментов в её истории, особенно эпизод, где Ritchie Blackmore «учит» хозяина шоу играть на гитаре. Ещё более странным было появление участников группы в программе "The Dating Game" («Игра в свидание»), где Jon Lord оказался в числе проигравших и был очень расстроен (потому что девушка, которая его отвергла «… была такая красивая»). Deep Purple вернулись домой к Новому Году и (после таких залов, как лос-анджелесский Inglewood Forum) неприятно удивились, узнав, что им предлагается выступить, например, в помещении Студенческого союза Голдмит-колледжа на юге Лондона. Изменились — как самооценка участников группы, так их взаимоотношения. Nick Simper: "Ritchie Blackmore был особенно раздражён тем фактом, что Rod Evans и Jon Lord на би-сайд поместили свою вещь и кое-что заработали на продаже сингла. Ritchie Blackmore жаловался мне: Rod Evans всего лишь написал слова песни! На что я отвечал ему: Любой идиот может сочинить гитарный рифф, а ты попробуй напиши осмысленный текст!… Ему это совсем не понравилось. — ". Март, апрель и май 1969 года группа провела в США, но до возвращения в Америку успела записать третий альбом Deep Purple - 'Deep Purple", ознаменовавший переход группы к более тяжёлой и сложной музыке. Между тем, к тому времени, как он (несколько месяцев спустя) вышел в Британии, группа уже изменила состав. В мае Ritchie Blackmore, Jon Lord и Ian Paice втроем тайно встретились в Нью-Йорке, где приняли решение о смене вокалиста, о чём проинформировали второго менеджера Джона Колетту (John Coletta), сопровождавшего группу в поездке. «Rod Evans и Nick Simper достигли предела своих возможностей в группе, — вспоминал Ian Paice. — Rod Evans обладал прекрасным вокалом для баллад, но его ограниченность становилась все более очевидной. Nick Simper был прекрасным басистом, но его взгляды были устремлены в прошлое, а не в будущее». Кроме того, Rod Evans влюбился в американку и вдруг захотел стать актёром. По словам Nick Simper'а, «… rock and roll для него потерял всякую значимость. Его сценические выступления становились все слабее и слабее». Между тем, остальные участники развивались стремительно, и звучание ужесточалось день ото дня. Свой последний концерт американского турне Deep Purple дали в первом отделении Cream. После них хедлайнеров зрители свистом согнали со сцены. В июне, по возвращении из Америки, Deep Purple приступили к записи нового сингла Hallelujah. К этому времени Ritchie Blackmore (благодаря барабанщику Мику Андервуду (Mick Underwood), знакомому по участию в The Outlaws) открыл для себя (практически неизвестную в Британии, но интересовавшую специалистов) группу Episode Six, исполнявшую pop rock в духе The Beach Boys, но имевшую необычно сильного вокалиста. Ritchie Blackmore привёл на их концерт Jon Lord'а, и тот также поразился мощи и выразительности голоса Иэна Гиллана (Ian Gillan). Последний согласился перейти в Deep Purple, но — чтобы продемонстрировать свои собственные композиции, — привёл с собой в студию и басиста Episode Six Роджера Гловера (Roger Glover), c которым уже сформировал прочный авторский дуэт. Ian Gillan вспоминал, что при встрече с Deep Purple его поразила прежде всего интеллигентность Jon Lord'а, от которого он ждал много худшего. Roger Glover (который всегда одевался и вёл себя очень просто), напротив, был напуган мрачностью участников Deep Purple, которые «… носили чёрное и выглядели очень загадочно». Roger Glover принял участие в записи Hallelujah, к своему изумлению, тут же получил приглашение войти в состав, и на следующий день его после долгих колебаний принял. Примечательно, что пока записывался сингл, Rod Evans и Nick Simper не знали, что их судьба решена. Остальные трое днём втайне репетировали с новыми вокалистом и басистом в лондонском центре Hanwell Community, а по вечерам давали концерты с Rod Evans'ом и Nick Simper'ом. «Для Deep Purple это был нормальный modus operandi, — позже вспоминал Roger Glover. — Тут было принято так: если возникает проблема, главное — всем о ней молчать, полагаясь на менеджмент. Предполагалось, что если ты профессионал, то с элементарной человеческой порядочностью должен расстаться заранее. Мне было очень стыдно за то, как поступили с Nick Simper'ом и Rod Evans'ом». Свой последний концерт старый состав Deep Purple дал в Кардиффе 4 июля 1969 года. Rod Evans'у и Nick Simper'у выдали трёхмесячное жалование, а кроме того позволили взять с собой усилители и аппаратуру. Nick Simper через суд отсудил ещё 10 тысяч фунтов, но утратил право на дальнейшие отчисления. Rod Evans удовлетворился малым и в результате в течение последующих восьми лет получал ежегодно по 15 тысяч фунтов от продажи старых пластинок, а позже в 1972 г. основал команду Captain Beyond. Между менеджерами Episode Six и Deep Purple возник конфликт, улаженный без суда, через компенсацию в размере 3 тысяч фунтов. Mark II (1969-1973, 1984-1988, 1992-1993) второй состав Deep Purple: Ian Gillan : Vocals, congas, & harmonica Jon Lord : Keyboards Ritchie Blackmore : Guitar Roger Glover : Bass, synthesizer Ian Paice : Drums Оставаясь практически неизвестными в Британии, Deep Purple постепенно и в Америке теряли коммерческий потенциал. Неожиданно для всех Jon Lord предложил менеджменту группы новую, в высшей степени привлекательную идею. Jon Lord: "Мысль о том, чтобы создать произведение, которое могло было бы исполняться rock-группой с симфоническим оркестром, появилась у меня ещё в The Artwoods. Натолкнул меня на неё альбом Дэйва Брубека (Dave Brubeck) «Brubeck Plays Bernstein Plays Brubeck». Ritchie Blackmore был обеими руками за. Вскоре после прихода Ian Paice'а и Roger Glover'а, Tony Edwards вдруг спросил меня: «Помнишь, ты мне рассказывал о своей идее? Надеюсь, это было всерьез? Ну так вот: я арендовал Алберт-Холл и Лондонский филармонический оркестр (The Royal Philharmonic Orchestra) — на 24 сентября». Я пришёл — сначала в ужас, потом в дикий восторг. На работу оставалось около трех месяцев, и я тут же к ней приступил" Издатели Deep Purple привлекли к сотрудничеству композитора Малкольма Арнольда (Malcolm Arnold), оскаровского лауреата: он должен был осуществлять общее наблюдение над ходом работы, после чего встать за дирижёрский пульт. Безоговорочная поддержка Malcolm Arnold'ом проекта, который многие считали сомнительным, в конечном итоге и обеспечила успех. Менеджмент группы нашёл спонсоров в лице The Daily Express и кинокомпании British Lion Films, снявшей это событие на плёнку. Ian Gillan и Roger Glover нервничали: через три месяца после прихода в группу их выводили на самую престижную концертную площадку страны. «Джон был очень терпелив с нами, — вспоминал Roger Glover. — Никто из нас не понимал нотной грамоты, так что наши бумажки пестрели замечаниями, вроде: «дожидаешься той дурацкой мелодии, потом смотришь на Malcolm Arnold'а и считаешь до четырёх». Альбом "Concerto For Group and Orchestra" (в исполнении Deep Purple и The Royal Philharmonic Orchestra), записанный на концерте в Ройал Алберт-холле 24 сентября 1969 года, был выпущен (в США) три месяца спустя. Он обеспечил группе ажиотаж в прессе (что и требовалось) и попал в британские чарты. Но среди музыкантов воцарилось уныние. Внезапная слава, обрушившаяся на Jon Lord'а-автора, бесила Ritchie Blackmore'а. Ian Gillan в этом смысле был солидарен с последним. «Промоутеры замучали нас вопросами, вроде: А где оркестр? — вспоминал он. — Один вообще заявил: симфонического вам не гарантирую, но духовой оркестр пригласить могу». Более того, и сам Jon Lord понял, что появление Ian Gillan'а и Roger Glover'а открывает перед группой возможности в совсем иной области. К этому времени центральной фигурой в ансамбле стал Ritchie Blackmore, разработавший своеобразный метод игры со «случайным шумом» (путем манипуляций с усилителем) и призывавший коллег последовать путем Led Zeppelin и Black Sabbath. Стало ясно, что сочный, насыщенный звук Roger Glover'а становится «якорем» нового звука, и что драматичный, экстравагантный вокал Ian Gillan'а идеально соответствует новому радикальному пути развития, который был предложен Ritchie Blackmore'ом. Новый стиль группа отрабатывала в ходе непрерывной концертной деятельности: компания Tetragrammaton (финансировавшая кинокартины и переживавшая один провал за другим) к этому времени оказалась на грани банкротства (её долги к февралю 1970 составили более двух миллионов долларов). При полном отсутствии финансовой поддержи из-за океана Deep Purple вынуждены были полагаться лишь на заработки от концертов. В полной мере потенциал нового состава реализовался в конце 1969 года, когда Deep Purple приступили к записи нового альбома. Едва группа собралась в студии, как Скрыть...
Популярные аккорды Deep Purple:
алфавиту | просмотрам | случайно
  • Intro: Gm / F / Eb
    
            Gm
    I have often told you stories
    F
    about the way
       Gm
    I lived the life of a drifter
    Dm
      waiting for the day
              Gm
    When I`d take your hand and sing you songs
          F
    Then maybe you would…
  • Riff 1:
    D|---5-----------5---7-5---------5---|
    A|-7---7-5---7-5---7-----7--5-7----7-|
    x 2
    E|---------7-------------------------|
    
    Verse:
    
    A|-5--7-7--7-7--7-7--7-|
    
    Riff 2:
    A|-7-5---5---5-9-7-5-7-5-----|
    E|-----7---7-------------7-5-|
    
    Intro:…
  • Riff A
    E|-------------------|----------------|------------------|-----|
    B|--------------*----|--------------*-|-------------*----|---*-|
    G|--------------X----|--------------X-|-------------X----|---X-:
    D|-5---8---10------5-|-8---11--10-----|-5---8---10-----8-|-5---:
    A|-5---8---10------5-|-8---11--10-----|-5---8---10-----8-|-5---|
    E|-------------------|----------------|------------------|-3---|
    
    E|---------------|--------------------|---|--------------------|
    B|---------------|--------------------|---|--------------------|
    G|---------------|--------------------|-%-|--------------------|
    D|-5-------------|-------5----------5-|-%-|--------5---------3-|
    A|-5----------10-|----5----------5----|---|-----5---------3----|
    E|-3-------------|-3----------3-------|---|--3---------1-------|
    
    E|-------------------|---|-------------------|-----------------|
    B|-------------------|---|-------------------|-----------------|
    G|-------------------|-%-|---------------(3)-|-----------------|
    D|-------5---------5-|-%-|-------5--------5--|-------5-------3-|
    A|----5---------5----|---|----5--------5-----|----5----3--3----|
    E|-3---------3-------|---|-3--------3--------|-3-------1-------|
    
    E|-------------|-------------|--------------|------------------|
    B|-------------|-------------|--------------|------------------|
    G|-------------|-------------|--------------|------------------|
    D|-----5-----5-|-----5-----5-|--------------|-------5--3-------|
    A|---5---5-5---|---5---5-5---|-5--5-5-5-5-5-|-5--5--------3----|
    E|-3-----3-----|-3-----3-3---|-3--3-3-3-3-3-|-3--------------1-|
    
    E|-------------|-------------|--------------|------------------|
    B|-------------|-------------|--------------|------------------|
    G|-------------|-------------|--------------|------------------|
    D|-----5-------|-----5-----5-|-5----------5-|-------5--------3-|
    A|-5-5---5-5-5-|---5-----5---|-5-5------5---|----5--------3----|
    E|-3-----3---3-|-3-----3-----|-----3-3------|-3--------1-------|
    
    E|---------------------|
    B|---------------------|
    G|---------------------|
    D|-------3h5---------5-|
    A|-5--5-----------5----|
    E|-3-----------3-------|
    
    Chorus
    
    E|---------|----------|------|-----|-----------|---------------|
    B|---------|----------|------|-----|-----------|---------------|
    G|-------5-|----------|------|-----|---------5-|---------------|
    D|----5----|--------6-|------|-----|-----5-----|---------6---X-|
    A|-3-------|----6-----|----5-|-(5)-|-3---------|-----6---------|
    E|---------|-4--------|-3----|-----|-----------|-4-------------|
    
    Riff…
  • Intro
    
    E|-----|
    B|-----|
    G|-1---|
    D|---3-|
    A|-----|
    E|-----|
    
    E|--------|---------------------|
    B|--------|---------------------|
    G|--------|---------------------|
    D|----1-2/|--3--------------1-2/|
    A|-3------|--------------3------|
    E|--------|---------------------|
    
    E|--------------------|-------------------------------|
    B|--------------------|----------------------------4b-|
    G|--------------------|----1---3-1-----1----3-1-------|
    D|-3----------------2/|-3----3-----3-1---3------3-----|
    A|--------------------|-------------------------------|
    E|--------------------|-------------------------------|
    
    E|-----------------1---------------|------|
    B|-4b-4-1-4--1---1---1-------------|------|
    G|-------------4-------4-3-1---3---|-1----|
    D|---------------------------3---3-|----3-|
    A|---------------------------------|------|
    E|---------------------------------|------|
    
    E|------4--6/7---4--6---|---4-6--7-6-4---6---4-----|
    B|---6---------6------6-|-6------------6---6-----7/|
    G|-5--------------------|--------------------------|
    D|----------------------|--------------------------|
    A|----------------------|--------------------------|
    E|----------------------|--------------------------|
    
    E|---8b---9--8--6--8---|-4b---4--1-4-----|
    B|-6-----------------6-|--------------4r-|
    G|---------------------|-----------------|
    D|---------------------|-----------------|
    A|---------------------|-----------------|
    E|---------------------|-----------------|
    
    Rythm
    
    ...
    
    E|--------------------------------|
    B|--------------------------------|
    G|--------------------------------|
    D|--------------------------------|
    A|--------------------------------|
    E|-13-12-11-10-9-8-7-6-5-4-3-1--1-|
    
    E|-8-|
    B|-8-|
    G|---|
    D|---|
    A|---|
    E|---|
    
    ...
    
    E|------------------------|
    B|------------------------|
    G|----1---3-1-----1---3-1-|
    D|-3----3-----3-1---3-----|
    A|------------------------|
    E|------------------------|
    
    E|-------|-----------------------------------|-------|
    B|----4b-|-6--4h6h4---4--------6-------------|----4b-|
    G|-------|----------5----5-4h5---5-4-3-1-----|-------|
    D|-3-----|-------------------------------3-1-|-3-----|
    A|-------|-----------------------------------|-------|
    E|-------|-----------------------------------|-------|
    
    E|---------------------------|-------------------------------|
    B|---------------------------|-------------------------------|
    G|---------------------------|-------------------------------|
    D|---1---3-1-----1---3-1-----|---------------------1---------|
    A|-3---3-----2-3---3-----3-2/|-3--2-1-2--1---1-2/3---3-1---1-|
    E|---------------------------|-------------4-------------4---|
    
    E|---------------------------|---------------------------|
    B|---------------------------|---------------------------|
    G|---------------------------|---------------------------|
    D|----3--1--3------3--1--3---|----3--1--3------3--1--3---|
    A|------------3------------3-|------------3------------3-|
    E|-1------------1------------|-1------------1------------|
    
    E|--------------------------|--------------------------|-------|
    B|--------------------------|--------------------------|-------|
    G|----3---1--------3---1--3-|--------------------------|-1---0-|
    D|------3----3-------3------|----3---1--3-----3---1--3-|-------|
    A|-1------------1-----------|------3------------3------|-------|
    E|--------------------------|-1------------1-----------|-------|
    
    E|--------------------|--------------------------|
    B|------------------4-|--------------------------|
    G|------------------3-|--------------------------|
    D|----3---1--3--3---2-|----3---1--3-----3---1----|
    A|------3-----------3-|------3------------3----3-|
    E|-1------------------|-1------------1-----------|
    
    E|--------------------------|--------------------------|
    B|--------------------------|--------------------------|
    G|--------------------------|----3---1--------3---1--3-|
    D|----3---1--3-----3---1--3-|------3----3-------3------|
    A|------3------------3------|-1------------1-----------|
    E|-1------------1-----------|--------------------------|
    
    E|--------------------------|------------|--------------------|
    B|--------------------------|------------|------------------4-|
    G|--------------------------|-1--------0-|------------------3-|
    D|----3---1--3-----3---1--3-|------------|----3---1--3--3---2-|
    A|------3------------3------|------------|------3-----------3-|
    E|-1------------1-----------|------------|-1------------------|
    
    E|--------------------------|--------------------------|
    B|--------------------------|--------------------------|
    G|--------------------------|--------------------------|
    D|----3---1--3-----3---1----|----3---1--3-----3---1--3-|
    A|------3------------3----3-|------3------------3------|
    E|-1------------1-----------|-1------------1-----------|
    
    E|--------------------------|--------------------------|-------|
    B|--------------------------|--------------------------|-------|
    G|----3---1--------3---1--3-|--------------------------|-1---0-|
    D|------3----3-------3------|----3---1--3-----3---1--3-|-------|
    A|-1------------1-----------|------3------------3------|-------|
    E|--------------------------|-1------------1-----------|-------|
    
    E|---------------|------------------------|-------|
    B|-------------4-|------------------------|----4b-|
    G|-------------3-|----1---3-1-----1---3-1-|-------|
    D|-3-----------2-|-3----3-----3-1---3-----|-3-----|
    A|-------------3-|------------------------|-------|
    E|---------------|------------------------|-------|
    
    E|-----------------------------------|-------|
    B|-6--4h6h4---4--------6-------------|----4b-|
    G|----------5----5-4h5---5-4-3-1-----|-------|
    D|-------------------------------3-1-|-3-----|
    A|-----------------------------------|-------|
    E|-----------------------------------|-------|
    
    E|-----------------------------|-------------------------------|
    B|-----------------------------|-------------------------------|
    G|-----------------------------|-------------------------------|
    D|----1---3-1-----1---3-1------|---------------------1---------|
    A|-3----3-----2-3---3-----3--2/|-3--2-1-2--1---1-2/3---3-1---1-|
    E|-----------------------------|-------------4-------------4---|
    
    E|---------------------------|---------------------------|
    B|---------------------------|---------------------------|
    G|---------------------------|---------------------------|
    D|----3--1--3------3--1--3---|----3--1--3------3--1--3---|
    A|------------3------------3-|------------3------------3-|
    E|-1------------1------------|-1------------1------------|
    
    E|--------------------------|--------------------------|------|
    B|--------------------------|--------------------------|------|
    G|----3---1--------3---1--3-|--------------------------|-1--0-|
    D|------3----3-------3------|----3---1--3-----3---1--3-|------|
    A|-1------------1-----------|------3------------3------|------|
    E|--------------------------|-1------------1-----------|------|
    
    E|--------------------|---------------------------|
    B|------------------4-|---------------------------|
    G|------------------3-|---------------------------|
    D|----3---1--3--3---2-|----3--1--3------3--1--3---|
    A|------3-----------3-|------------3------------3-|
    E|-1------------------|-1------------1------------|
    
    E|---------------------------|---------------------------|
    B|---------------------------|---------------------------|
    G|---------------------------|-----3---1--------3---1--3-|
    D|----3--1--3------3--1--3---|-------3----3-------3------|
    A|------------3------------3-|--1------------1-----------|
    E|-1------------1------------|---------------------------|
    
    E|--------------------------|------------|--------------------|
    B|--------------------------|------------|------------------4-|
    G|--------------------------|-1--------0-|------------------3-|
    D|----3---1--3-----3---1--3-|------------|----3---1--3--3---2-|
    A|------3------------3------|------------|------3-----------3-|
    E|-1------------1-----------|------------|-1------------------|
    
    E|---------------------------|---------------------------|
    B|---------------------------|---------------------------|
    G|---------------------------|---------------------------|
    D|----3--1--3------3--1--3---|----3--1--3------3--1--3---|
    A|------------3------------3-|------------3------------3-|
    E|-1------------1------------|-1------------1------------|
    
    E|--------------------------|--------------------------|-------|
    B|--------------------------|--------------------------|-------|
    G|----3---1--------3---1--3-|--------------------------|-1---0-|
    D|------3----3-------3------|----3---1--3-----3---1--3-|-------|
    A|-1------------1-----------|------3------------3------|-------|
    E|--------------------------|-1------------1-----------|-------|
    
    E|---------------|------------------------|-------|
    B|-------------4-|------------------------|----4b-|
    G|-------------3-|----1---3-1-----1---3-1-|-------|
    D|-3-----------2-|-3----3-----3-1---3-----|-3-----|
    A|-------------3-|------------------------|-------|
    E|---------------|------------------------|-------|
    
    E|-----------------------------------|-------|
    B|-6--4h6h4---4--------6-------------|----4b-|
    G|----------5----5-4h5---5-4-3-1-----|-------|
    D|-------------------------------3-1-|-3-----|
    A|-----------------------------------|-------|
    E|-----------------------------------|-------|
    
    E|----------------------------|--------------------------------|
    B|----------------------------|--------------------------------|
    G|----------------------------|--------------------------------|
    D|---1---3-1-----1---3-1------|--------------------1-----------|
    A|-3---3-----2-3---3-----3--2/|-3-2-1-2--1---1-2/3---3-1---1-3/|
    E|----------------------------|------------4-------------4-----|
    
    E|-------------------------------|-------------|
    B|-------------------------------|-------------|
    G|-------------------------------|-------------|
    D|---------------------3---------|----5---3--5-|
    A|-5--4-3-4--3-1-3-4/5---5-3-1-3-|-5----5------|
    E|-------------------------------|-------------|
    
    E|------------------|------------------|-------------------|
    B|------------------|------------------|-------------------|
    G|-5b---5--3--------|------------------|----------3--------|
    D|------------5-3-5-|------------------|------------5--5-5-|
    A|------------------|-3----3----3----3-|-------------------|
    E|------------------|-x----x----x----x-|-3-----------------|
    
    E|------------|----------------|----------|
    B|------------|--------------6-|----------|
    G|-3--------2-|--------------5-|-3--------|
    D|------------|-5---3--5-----4-|---5--5-5-|
    A|------------|---5----------5-|----------|
    E|------------|----------------|----------|
    
    E|--------------------|--------------------|
    B|--------------------|--------------------|
    G|-----------3--------|-----------3--------|
    D|-5---3--5----5--5-5-|-5---3--5----5--3-5-|
    A|---5----------------|---3----------------|
    E|--------------------|--------------------|
    
    E|----------------------|------------|-------------------------|
    B|----------------------|------------|-------------------------|
    G|----------------------|-3--------2-|-------------------------|
    D|-5---3--5----5---3--5-|------------|----5---3--5----5---3----|
    A|---5-----------5------|------------|------5-----------5----5-|
    E|----------------------|------------|-3-----------------------|
    
    E|--------------------------|--------------------------|
    B|--------------------------|--------------------------|
    G|----------------3---------|----------------3---------|
    D|----5---3--5--------3-----|----5---3--5--------3-----|
    A|------5-----------5---3-1-|------5-----------5---5-1-|
    E|-3------------------------|-3------------------------|
    
    E|---------------------------|----------------------|---------|
    B|---------------------------|----------------------|---------|
    G|-----------------3---------|--------------3-------|-3-----2-|
    D|----5---3--5---------3-----|----5---3--5----5-3-5-|---------|
    A|-3----3-------3----5---3-5-|------5---------------|---------|
    E|---------------------------|-3--------------------|---------|
    
    E|---------------|-6----------------|--------------------|
    B|-------------6-|-8----------------|--------------------|
    G|-0-----------5-|-7----------------|--------------------|
    D|-------------4-|--------5--5----5-|-5--------5----5--5-|
    A|-------------5-|--------x--x----x-|-x--------x----x--x-|
    E|---------------|--------x--x----x-|-x--------x----x--x-|
    
    E|-----------|----------------------|-----------------|
    B|-----------|----------------------|-----------------|
    G|-3-------3-|--3--3----------------|-3--------2----3-|
    D|-5-------5-|--5--5--------5-----5-|-----------------|
    A|-x-------x-|--------------x-----x-|-----------------|
    E|-x-------x-|--------------x-----x-|-----------------|
    
    E|-------------|------------------|--------------------------|
    B|-------------|------------------|--------------------------|
    G|-------------|-------------3----|--------------3-----------|
    D|-5-----------|-5---3--5-------5-|----5---3--5-----5---3--5-|
    A|------5------|---5--------------|------5------------5------|
    E|-----------3-|------------------|-3------------------------|
    
    E|-------------------------|-------------------|------------|
    B|-------------------------|-------------------|------------|
    G|-------------------------|-----------3-------|-3--------2-|
    D|----5---3--5----5---3--5-|-5---3--5----5-3-5-|------------|
    A|-3----3-----------3------|---5---------------|------------|
    E|-------------------------|-------------------|------------|
    
    E|----------------|--------------------------|
    B|--------------6-|--------------------------|
    G|-0------------5-|--------------------------|
    D|-----3--5-----4-|----5---3--5-----5---3--5-|
    A|---5----------5-|------3------------3------|
    E|----------------|-3------------3-----------|
    
    E|--------------------------|--------------------------|
    B|--------------------------|--------------------------|
    G|--------------------------|--------------------------|
    D|----5---3--5-----5---3--5-|----5---3--5-----5---3--5-|
    A|------3------------3------|------3------------3------|
    E|-3------------3-----------|-3------------3-----------|
    
    E|----------------------|------------|------------|
    B|----------------------|------------|------------|
    G|--------------3-------|-3--------2-|------------|
    D|----5---3--5----5-3-5-|------------|-5--------3-|
    A|------5---------------|------------|------------|
    E|-3--------------------|------------|------------|
    
    E|------------------------------|----------------|
    B|---------------------------8b-|-8b-8b-8b-8b-8b-|
    G|----5---7-5-----5---7-5-------|----------------|
    D|-7----7-----7-5---7-----7-----|----------------|
    A|------------------------------|----------------|
    E|------------------------------|----------------|
    
    E|--------------------------------------|-------------------|
    B|-10--8h10h8---8--------10-------------|----8b-----8b---8b-|
    G|------------9----9-8h9----9-8-7-5-----|-------------------|
    D|----------------------------------7-5-|-7-----------------|
    A|--------------------------------------|-------------------|
    E|--------------------------------------|-------------------|
    
    E|--------------------------|------------------------|
    B|--------------------------|------------------------|
    G|--------------------------|------------------------|
    D|----5---7-5-----5---7-5---|------------------------|
    A|-7----7-----6/7---7-----7-|-------------0--1--2--3-|
    E|--------------------------|-0--1--2--3-------------|
    
    E|----------------------------|---------------------------|
    B|----------------------------|---------------------------|
    G|----5---7-5-----------------|--------5------------------|
    D|------7-----7-5-7--7---5--7-|----7-5---7-5--7--7---5--7-|
    A|---------------------5------|-0------------------5------|
    E|-5--------------------------|---------------------------|
    
    E|-----------------------------|--------------------------|
    B|-----------------------------|--------------------------|
    G|----7---5--------5---7-5-----|--------------------------|
    D|------7----7-------7-----7-5-|----7---5--7-----7---5----|
    A|-5------------5--------------|------7------------7----7-|
    E|-----------------------------|-5------------5-----------|
    
    E|-------|--------------------------|--------------------------|
    B|-------|--------------------------|--------------------------|
    G|-5---4-|--------------------------|--------------------------|
    D|-------|----7---5--7-----7---5--7-|----7---5--7-----7---5--7-|
    A|-------|------5------------5------|------5------------5------|
    E|-------|-5------------5-----------|-5------------5-----------|
    
    E|---------------------------|--------------------------|------|
    B|---------------------------|--------------------------|------|
    G|-----------------7----5----|--------------------------|-5--4-|
    D|----7---5--7-------7-----7-|----7---5--7-----7---5--7-|------|
    A|-5----5-------5------------|------5------------5------|------|
    E|---------------------------|-5------------5-----------|------|
    
    E|--------|--------------------------|-------------------------|
    B|------8-|--------------------------|-------------------------|
    G|------7-|--------------------------|--------------5----------|
    D|-7----6-|----7---5--7-----7---5--7-|----7---5--7----7-5-7--5-|
    A|------7-|------5------------5------|------5------------------|
    E|--------|-5------------5-----------|-5-----------------------|
    
    E|--------------------------|--------------------------|-------|
    B|--------------------------|--------------------------|-------|
    G|--------------------------|--------------------------|-5---4-|
    D|----7---5--7-----7---5--7-|----7---5--7-----7---5--7-|-------|
    A|------5------------5------|------5------------5------|-------|
    E|-5------------5-----------|-5------------5-----------|-------|
    
    E|----------------------------|------------|
    B|----------------------------|------------|
    G|----------------------------|-5--------4-|
    D|----7---5--7---7-5---7----5-|------------|
    A|------5------5-----7----7---|------------|
    E|-5--------------------------|------------|
    
    E|------------------------------------|------------|
    B|------------------------------------|------------|
    G|------------------------------------|-5--------4-|
    D|-7--5--4----------------------------|------------|
    A|----------7--6--5--4--3-----------5-|------------|
    E|-------------------------5--3--0----|------------|
    
    Solo
    
    ...
    
    E|------------------------|-------|
    B|------------------------|----4b-|
    G|----1---3-1-----1---3-1-|-------|
    D|-3----3-----3-1---3-----|-3-----|
    A|------------------------|-------|
    E|------------------------|-------|
    
    E|-----------------------------------|--------|
    B|-6--4h6h4---4--------6-------------|-----4b-|
    G|----------5----5-4h5---5-4-3-1-----|--------|
    D|-------------------------------3-1-|--3-----|
    A|-----------------------------------|--------|
    E|-----------------------------------|--------|
    
    E|-----------------------------|-------------------------------|
    B|-----------------------------|-------------------------------|
    G|-----------------------------|-------------------------------|
    D|----1---3-1-----1---3-1------|---------------------1---------|
    A|-3----3-----2-3---3-----3--2/|-3--2-1-2--1---1-2/3---3-1---1-|
    E|-----------------------------|-------------4-------------4---|
    
    E|-----------------|---------------------------------1-|
    B|-----------------|-------------------------------1---|
    G|-3b-3b-----3b-3b-|-3-4-3-1----1---3-1---1------3b----|
    D|-----------------|---------3----3-----3--------------|
    A|-----------------|-----------------------------------|
    E|-----------------|-----------------------------------|
    
    E|---------------------------8b-|-8-6h5h4---6-4h6h4------------|
    B|-4-1---------------4/6---6----|---------6-----------4-6--6-6-|
    G|-----4-3-1---3---1-----7------|-------------------5----------|
    D|-----------3---3--------------|------------------------------|
    A|------------------------------|------------------------------|
    E|------------------------------|------------------------------|
    
    E|-------------------------------4---|-4-6b--6-4---4-6---------|
    B|-6-4---4-6-6-4---4-6-6-4---4-6---6-|-----------6-----------5/|
    G|-----5---------5---------5---------|------------------3b-----|
    D|-----------------------------------|-------------------------|
    A|-----------------------------------|-------------------------|
    E|-----------------------------------|-------------------------|
    
    E|---4-6-7h6h4-6-4-7--6--5/|-4-6-7-6---4-4h6h7h4---4-4h6h7h4---|
    B|-6-----------------------|---------6-----------6-----------6-|
    G|-------------------------|-----------------------------------|
    D|-------------------------|-----------------------------------|
    A|-------------------------|-----------------------------------|
    E|-------------------------|-----------------------------------|
    
    E|-4-4h6h7h4---4-4h6h7h4-------6-4-----------|
    B|-----------6-----------6---6-----6-4-1-----|
    G|---------------------------------------3-1-|
    D|-------------------------------------------|
    A|-------------------------------------------|
    E|-------------------------------------------|
    
    E|--------------------------------1-|--------------------------|
    B|------------------------------1---|-4-1------------------1---|
    G|-1/3-1-3-1-----1---3-1---1--3b----|-----4-3-1---1-3-1/3----3-|
    D|------3----3-1---3-----3----------|-----------3---------3----|
    A|----------------------------------|--------------------------|
    E|----------------------------------|--------------------------|
    
    E|----------------------------|--------------------------------|
    B|----------------------------|1-------1--------1--------1-----|
    G|1---3---3-1---1---3-1------3|-3-1--3b-3-1---3b-3-1---3b-3-1--|
    D|--3---3-----3---3-----3-1---|----3--------3--------3--------3|
    A|--------------------------3-|--------------------------------|
    E|----------------------------|--------------------------------|
    
    E|-------------------------------------------------|
    B|-------------------------------------------------|
    G|-----3-6-5-3-5-4-3-----------3-6-5-3-5-4-3-------|
    D|-5-6---------------6-5-3-5-6---------------6-5-3-|
    A|-------------------------------------------------|
    E|-------------------------------------------------|
    
    E|-------------------------------------------------|
    B|-------------------------------------------------|
    G|-----3-6-5-3-5-4-3-6-5-3-5-4-3-6-5-3-5-4-3-6-5-3-|
    D|-5-6---------------------------------------------|
    A|-------------------------------------------------|
    E|-------------------------------------------------|
    
    E|--------------------------------------|
    B|-4------------------------------------|
    G|----3-6-5-3-5-4-3-----------3-6-5-3-5-|
    D|------------------6-5-3-5-6-----------|
    A|--------------------------------------|
    E|--------------------------------------|
    
    E|-----------------------------------|------------------------|
    B|-----------------------------------|------------------------|
    G|-5--3-----------3-5-3---------3--5-|-3-4b-4b-4b-3-1-3-1--3b-|
    D|------6-5-3-5-6-------6-5--6-------|------------------------|
    A|-----------------------------------|------------------------|
    E|-----------------------------------|------------------------|
    
    E|------------------------|-------|
    B|------------------------|----4b-|
    G|----1---3-1-----1---3-1-|-------|
    D|-3----3-----3-1---3-----|-3-----|
    A|------------------------|-------|
    E|------------------------|-------|
    
    E|-----------------------------------|-------|
    B|-6--4h6h4---4--------6-------------|----4b-|
    G|----------5----5-4h5---5-4-3-1-----|-------|
    D|-------------------------------3-1-|-3-----|
    A|-----------------------------------|-------|
    E|-----------------------------------|-------|
    
    E|------------------------------|-----------------------------|
    B|------------------------------|-----------------------------|
    G|------------------------------|-----------------------------|
    D|----1---3-1-----1---3-1-------|-------------------1---------|
    A|-3----3-----2-3---3-----3---2/|-3-2-1-2-1---1-2/3---3-1---1-|
    E|------------------------------|-----------4-------------4---|
    ...
    
    E|------------------------|
    B|------------------------|
    G|----1---3-1-----1---3-1-|
    D|-3----3-----3-1---3-----|
    A|------------------------|
    E|------------------------|
    
    E|-------|-----------------------------------|-------|
    B|----4b-|-6--4h6h4---4--------6-------------|----4b-|
    G|-------|----------5----5-4h5---5-4-3-1-----|-------|
    D|-3-----|-------------------------------3-1-|-3-----|
    A|-------|-----------------------------------|-------|
    E|-------|-----------------------------------|-------|
    
    E|---------------------------|---------------------------------|
    B|---------------------------|---------------------------------|
    G|---------------------------|---------------------------------|
    D|---1---3-1-----1---3-1-----|---------------------1-----------|
    A|-3---3-----2-3---3-----3-2/|-3--2-1-2--1---1-2/3---3-1---1-3/|
    E|---------------------------|-------------4-------------4-----|
    
    E|-------------------------------|
    B|-------------------------------|
    G|-------------------------------|
    D|---------------------3---------|
    A|-5--4-3-4--3-1-3-4/5---5-3-1-3-|
    E|-------------------------------|…
  • [Intro]
                                                         Bm
    E|-------------------------------------------------------------|
    B|-----------------------/12-----/12-10------------------------|
    G|-----/11~~----------11----------------/11---------------(7)--|
    D|7-9~-------7-9~-/12--------7-9~-----------12-7-9~-----7-----9|
    A|--------------------------------------------------7h9--------|
    E|-------------------------------------------------------------|
    
    Bm
    If…
  • E|-------------------------------------| 1 такт
    B|-------------------------------------|
    G|-------------------------------------|
    D|------------0/3----------------4/5-3-|
    A|5-5-3-0-3-5-----5--5-5-3-0-3-5-------|
    E|-------------------------------------|
    
    E|-----------------------------------|…
  • First riff:
    e|------------------|
    B|------------------|
    G|----3-------------|
    D|-0----5-----------|
    A|----------5-------|
    E|------------6-3-3-|
    
    Second riff:
    e|------------------|
    B|----4-------------|
    G|-0----5-----------|
    D|----------5-------|
    A|------------6-3-3-|
    E|------------------|
    
    "Chorus"…
  • Intro:
    
            s  s  s  s  s  s  s  s   s  s  s  s  s  s  s  s
    G|------r-----------7------------r-----------7-----------|
    D|--4:--e--7--8--9-----9--7------e--7--8--9-----9--7-----|
    A|--4:--s--------------------10--s--------------------10-|
    E|------t------------------------t-----------------------|
    
    Verse…
  • Intro
    
       G5 Fsus2  C  Fsus2
    E|---|-----|-1-|---|
    B|-3-|--1--|-1-|-1-|
    G|-0-|--0--|-0-|-0-|
    D|-5-|--3--|-2-|-3-|
    A|---|-----|---|---|
    E|---|-----|---|---|
    
       G5 Fsus2  G5
    E|---|----|-----|-3-|
    B|-3-|-1--|--1--|-0-|
    G|-0-|-0--|--0--|-0-|
    D|-5-|-3--|--2--|-5-|
    A|---|----|-----|-5-|
    E|---|----|-----|---|
    
    D|------------------------|------------------------|…
  • G5 A5 D5 C5 A5 C5 D5 G5 A5
    D|-------7--5-----5--7-------|
    A|-5--7--5--3--7--3--5--5--7-|
    E|-3--5--------5--------3--5-|
    
    VERSE
    D|-------2--4--2--4--2--4--2--4-|
    A|-5--7--0--0--0--0--0--0--0--0-|
    E|-3--5-------------------------|
    
    D|-5--7--7--9-------------------------|
    A|-3--3--5--5--7--9--7--9--7--9--7--9-|
    E|-------------5--5--5--5--5--5--5--5-|
    
    D|-------------5--7--7--9-------------|
    A|-7--9--7--9--3--3--5--5--7--9--7--9-|
    E|-5--5--5--5--------------5--5--5--5-|
    
    D|-7--9--7--9--------------7--9--7--9-|
    A|-5--5--5--5--7--9--7--9--5--5--5--5-|
    E|-------------5--5--5--5-------------|
    (VERSE…
  • Riff1:
    E|-----------------------------------------------------|
    B|-----------------------------------------------------|
    G|-----------------------------------------------------|
    D|-----------------------------------------------------|
    A|-----7--10--7-----7------5h7-----7--10--7-------5----|
    E|--0------------0-----5h7------0------------5h7-----3-|…
  • 1:33  q  q  q  q     q  q  q  q                  
    G----------------r--r--r-----|-----r--r-----|---------------
    D---4:-----------e--e--e-----|-----e--e-----|---------------
    A---4:-----------s--s--s-----|-----s--s-----|---------------
    E----------------t--t--t--1--|--3--t--t--1--|---------------…
  • Am     G/B            C
    Feels like the end
                Dm                    Am
    When you?re closer to losing your dreams
                  G
    Than losing a friend
    
    Am       G/B    C
    Flying blind
    Dm                    Am
    I?m shooting…
  • Clean Nylon Acoustic - Blackmore (Guitar 1 - Finger Picked)
    CD: 0:00
    
    This is quite a difficult intro to work out with the rapid hammer-ons and pull-offs. 
    I could only manage to work out the guitar and not the organ in…
  • INTRO
    
    Dm (strings)                              Bb/D      fill (dr)
    E|-------------|----------------|----------------|-------------|
    B|-------------|----------------|----------------|-------------|
    G|-------------|----------------|----------------|-------------|
    D|-------------|----------------|----------------|-------------|
    A|1p0-0--------|1p0-0-----------|1p0-------------|1p0-0--------|
    D|---3--1p0----|---3-1p0--------|-----1p0--------|---3--0=====-|
    
    MAIN…
  • Intro.
    E|-----------------------------------------------|-------------|
    B|-----------------------------------------------|-------------|
    G|--------------------7----------11-9-7-----7-12-|-------------|
    D|----------4---7--9-----9-7-9~~--------9-7------|-------4-7-9-|
    A|----5--7---------------------------------------|---5-7-------|
    E|-7---------------------------------------------|-7-----------|
    
    E|---------14-14-14-14-12-14-14-14-14-15p14p12-----------------|
    B|---------------------------------------------15p14p12--------|
    G|------------------------------------------------------14-----|
    D|7--------------------------------------------------------14--|
    A|--9-7-9~~--------------------------------------------------14|
    E|-------------------------------------------------------------|…
  • Intro:
    
    Fig.1
    E------------------|-------------------|-----------------|-----------------|
    B------------------|-------------------|-----------------|-----------------|
    G--7/9~----7~------|-------------------|-----------------|-----------------|
    D------------------|--9--7-----7~------|--7--------------|-----------------|
    A------------------|--------10---------|-----10--7---7~~-|--7----7~----7~--|
    e------------------|-------------------|-----------------|----10-----------|
    
    |------------------|-------------------|-----------------|-----------------|
    |------------------|-------------------|-----------------|-----------------|
    |------------------|-------------------|-----------------|-----------------|
    |--7---------------|-------------------|-----------------|-----------------|
    |----10--7---7~----|--7-----7~-----7~--|-----------------|-----------------|
    |------------------|-----10------------|-----------------|-----------------|
    
    E------------------|-------------------|-----------------|-----------------|
    B------------------|-------------------|-----------------|-----------------|
    G--7/9~----7~------|-------------------|-----------------|-----------------|
    D------------------|--9--7-----7~------|--7--------------|-----------------|
    A------------------|--------10---------|-----10--7---7~~-|--7----7~----7~--|
    e------------------|-------------------|-----------------|----10-----------|
    
    |------------------|-------------------|-----------------|-----------------|
    |------------------|-------------------|-----------------|-----------------|
    |------------------|-------------------|-----------------|-----------------|
    |--7---------------|-------------------|-----------------|-----------------|
    |----10----7-7~----|--7-----7~-----7~--|-----------------|-----------------|
    |------------------|-----10------------|-----------------|-----------------|
    
    
    
    Fig.2
    E------------------|-------------------|-----------------|-----------------|
    B------------------|-------------------|-----------------|-----------------|
    G--7/9~----7~------|-------------------|-----------------|-----------------|
    D------------------|--9--7-----7~------|--7--------------|--7--------------|
    A------------------|--------10---------|-----10--7---7~~-|-----10--7---7~~-|
    e------------------|-------------------|-----------------|-----------------|
    
    |------------------|
    |------------------|
    |------------------|
    |--7---------------|
    |----10--7~~-------|
    |------------------|…
  • intro repeat 2x
    w/delay
    e|----------17--------------------------17---------------------|
    b|-------15----------18-20-17-------15---------------18-20--17-|
    g|----14----------17-------------14---------------17-----------|
    d|-12----------15-------------12------------15-17--------------|
    a|-------------------------------------------------------------|
    E|-------------------------------------------------------------|
    
    part2…
  • (intro)
    
    Bb Ab Eb F
    
    C Cm7 F
    C Cm7 F
    C Cm7 F
    C Cm7 F
    
    (bridge)
    
    Ab
    Eb
    Bb
    F
    Naa na na naa na na naa na na naaa
    C
    Cm7 F
    (twiddly bit on guitar)
    Ab
    Eb
    Bb
    F
    Naa na na naa na na naa na na naaa
    C
    Cm7 F
    (twiddly bit on hammond)
    
    (first…
  • Am         C                F       E7             Am      C F
    When the night winds softly blow    through my open window
    E7                Am         C     F     F     E7      E7
    then I start to remember     the girl that…
  • F#m       E/G#         D/A       Hm           F#m       E/G#       
    E||---2----2----2----2----|--2----2----2----2----|--2----2----2----2----|
    B||---2----2----5----5----|--3----3----3----3----|--2----2----5----5----|
    G||*--2----2----4----4----|--2----2----4----4----|--2----2----4----4----|
    D||*--4----4----2----2----|--4----4----4----4----|--4----4----2----2----|
    A||---4----4----2----2----|--0----0----2----2----|--4----4----2----2----|
    E||---2----2----4----4----|------------2----2----|--2----2----4----4----|…
  • The tune starts off with the following chromatic sequence :
    
    e|------------------|----------------| => To Main Riff
    B|------------------|----------------|
    G|------------------|----------------|
    D|----------------- |----------------|
    A|-5--6--7----------|--2--3--4--5----|
    E|---------3--4--5--|----------------|
    
    Main…
  • Intro:
    G G Am   G G Am   F F G   G G Am
    
    1. verse
    
    G G Am                     G G Am
           Sweet Child in time
                         F F G
     you`ll see the line
                       G G Am
    The line that`s drawn between…
  • SOLO
    
    Here is the main riff of the solo :  (played twice)
    
    E|---------------------------------------------------------------------|
    B|---------------------------------------------------------------------|
    G|---------------------------------------------------------------------|
    D|---------------11--12--11-------11^h12h^11--10-----------------------|
    A|--10--12--13---------------13-------------------13--12--10--12--13---|
    E|---------------------------------------------------------------------|…
  • G
    Well, I stood under your bedroom window
    Throwing up a brick
    No one came I threw one more
    That really did the trick
    Your daddy came and banged my head
    He said what kind of man
    Is this that`s hanging `round my girl
    And threw…
  • A          A        A      A G D   <-- Chord Progression 1 (CP1)
    Spread the word around
    A          A        A      A G D
    The rat is leaving town
    A         A        A      A G D
    The message is a song
    A      A       A…
  • Intro:
                                           
    e-----------------------------------------------------------------------------------
    B-----------------------------------------------------------------------------------
    G--------------2--------2-----1-----------2--------1--------------------------------
    D--------------2--------2----(2)----------2--------2-------2----------------0---(0)-
    A--------------------------------------------------------------2-------0-h-2--------
    E-----0--------------------------------0-----------------------------0--------------
    
    e-----------------------------------------------------------------------------------
    B-----------------------------------------------------------------------------------
    G--------------2--------2-----1-----------2-------1---------------------------------
    D--------------2--------2----(2)----------2--------2-------2-----3-----4------5-----
    A-------------------------------------------------------------2------3-----4------5-
    E-----0--------------------------------0-----------------------------------2------3-
    
    e-------------------------------------------------------------3----------------------
    B----------------------------------------------------------------5-p-3-p-0------0----
    G----------------------------------------------------------------------------------5-
    D------------2----------0-h-2----------2----------------------------------------4----
    A-------------------(2)--------------------------------------------------------------
    E--0--------------------------------0------------------------------------------------
    
    e-----------------------------------------------------------------------------------------
    B--------------------------------------------------------------------------------------(0)
    G-----2----2-----1-----2-----1----------------------------------2--2----1------2---1------
    D-----2----2----(2)----2-----2-----2----------------0---2-----2--2-(2)-----2---2----------
    A-------------------------------------2---(2)-0-h-2---------------------------------------
    E-0-------------------0-------------------------------------0------------------0----------
    
    e-------------------------------------------------------------------------------------------------------
    B--------------------------------------------------------------------------------------(0)--------------
    G-----2----2-----1-----2-----1-------------------------------------2--2----1------2---1-----------------
    D-----2----2----(2)----2-----2-----2----------------0-h---2------2--2-(2)----2----2---------------------
    A-------------------------------------2---(2)-0-h-2-----------------------------------------------------
    E-0-------------------0---------------------------------------0------------------0--------------1-2--3--…
  • Intro:  Gm
    
        Gm
    The sky is red, I don`t understand;
    F/G
    past midnight I still see the land.
      Gm
    People are sayin` the woman is damned,
     C                                         Gm
    she makes you burn with a wave of her…
  • Проигрыш:
    D|-------------------------5//7----5---------------|
    A|-------3-----5-7-3---0--------------7----0-3-5-3-|
    E|-5-----------------------------------------------|
    
    A|-7//1
    
    Проигрыш - 4 раза
    
       F
    D|-3-3-3-3-3-------3-3-3-3-
    A|-3-3-3-3-3-------3-3-3-3-
    E|-1-1-1-1-1-------1-1-1-1-…
  • E|--------|
    B|--------|
    G|-7~~~---|
    D|-7~~~---|
    A|--------|
    E|--------|
    
    Riff 1 (Main)
    
    (P = palm mute briefly before changing chord)
    ( x = left hand mute and strike strings)
    
    note: 9-P means play 9th position, hold and…
  • Here is the main riff of the solo :  (played twice)
    
    E|-------------------------------------------------------------|
    B|-------------------------------------------------------------|
    G|-------------------------------------------------------------|
    D|-----------11--12--11-------11^h12h^11--10-------------------|
    A|-10-12-13--------------13-------------------13--12--10-12-13-|
    E|-------------------------------------------------------------|…
  • I haven`t matched the Riffs with the lyrics, but it`s pretty
    simple, just listen to the record...
    
    Riff A:
    e||-------------------------------------||---------------------|
    b||-------------------------------------||---------------------|
    g||o-----------------------------------o||---------------------|
    d||o------------0-0---0-2--------------o||---------------0-1-2-|
    a||--2-2---0-2---------------------0-1--||-2---0h1-2-3-4-------|
    E||----------------------0-1-2-3-4------||---------------------|
    
    Riff…
  • Intro: Gm
    
    Gm Bb/G
    Mary Long is a hypocrite
    C/G Gm
    She does all the things that she tells us not to do
    Bb/G
    Selling filth from a corner shop
    C/G Gm
    And knitting patterns to the high street queue
    Bb/G
    She paints roses, even…
  • Проигрыш1 :
    D|------------------------------------------------------
    A|----7--7-5-----7--5----------5^7-----7--7-5-----7--5~-
    E|-0----------0--------0----0-------0----------0--------
    
    Проигрыш2 :
    G|-------5-----------------------------
    D|-----5-------------------------------
    A|-5-7-----6-5-3-5-3-0-3-5-3-5-6-5-3-0-
    
    
    Проигрыш1…
  • INTRO
    
     N.C
    
     ----------------I----------------I
     ----(both guitars)---------------I
     ----------------I----------------I
     5-----3-----1---I3-----1-----0---I
     ----------------I----------------I
     ----------------I----------------I…
  • Chords
    Bm    F#7+10   A      E7+10
    7     #        5      #
    7     10       5      8
    7     9        6      7
    9     8        7      6
    9     9        7      7
    7     #        5      #
    
    intro
     Bm…
  • MAIN RIFF
    e |-----------------------------------|----------------------------------|
    B |-----------------------------------|----------------------------------|
    G |-----------------------------------|----------------------------------|
    D…
  • Normal tuning
    riff1A: guitar1
    E|-------------------------------------------------------------|
    B|-------------------------------------------------------------|
    G|--------5------------------5--6--7----------------5----------|
    D|----5-7---7-5-7------5--7-----------5-------5--7-----7--5--7-|
    A|-/7--------------/7---------------------/7-------------------|
    E|-------------------------------------------------------------|
    
    
    end…
  • E--------------------------------------------------------------
    B--------------------------------------------------------------
    G---------0----------------------------------------------------
    D---2--0-----2PH----0--------0---------------------------------
    A----------------------2--1-----2~-----0-----2-----------------
    E-----------------------------------------3-----0--------------
    
    Second…
Наверх