Аккорды «Deerhoof»

Deerhoof
В свое время музыкальные эксперименты приносили своим создателям немалую славу, вспомните, например, каких успехов добились King Crimson или Yes, несмотря на то, что практически на каждом альбоме обязательно присутствовала часть чего-то слишком странного и оттого слишком скучного. Обнаженная, отрепетированная импровизация неизвестной направленности нечасто находила место в сердцах даже самых безбашенных меломанов. Но, если арт-рок-группе удается совместить свои изыски с более популярным направлением,… Читать полностью... В свое время музыкальные эксперименты приносили своим создателям немалую славу, вспомните, например, каких успехов добились King Crimson или Yes, несмотря на то, что практически на каждом альбоме обязательно присутствовала часть чего-то слишком странного и оттого слишком скучного. Обнаженная, отрепетированная импровизация неизвестной направленности нечасто находила место в сердцах даже самых безбашенных меломанов. Но, если арт-рок-группе удается совместить свои изыски с более популярным направлением, эффект превосходит все ожидания. Deerhoof – экспериментальная группа из Сан-Франциско, которая в течение своего 13-летнего существования прошла путь от нестандартной во всех смыслах музыкальной анархии к своему оригинальному стилю, в конце концов, приблизилась к уровню, доступному для обывателя. Их новый, восьмой по счету альбом Friend Opportunity говорит о том, что музыканты окончательно перешли на сторону понятной рок-музыки. Возьмите все самые характерные черты инди-рок-групп, добавьте вокал, напоминающий детский голос, и вы получите представление о том, что на этот раз приготовили Deerhoof. Девять близких к поп-року песен и одна инструментальная композиция Сложная структура песен группы, необычная манера исполнения и сырой звук, который, в данном случае, тоже является одной из составляющих общей картины, создали Deerhoof репутацию музыкальных нигилистов, отказывающихся общаться с внешним миром. Но Deerhoof не были бы Deerhoof, если бы не постарались опровергнуть общественное мнение и доказать, что они тоже могут играть поп-музыку. Friend Opportunity представляет девять близких к поп-року песен и один пятнадцатиминутный инструментальный экскурс по музыкальным джунглям. Возможно, группа и хотела прозвучать более попсово, но эффект получился куда более интересным. Первая композиция The Perfect Me - заводная песня с обилием клавишных и барабанных брейков. Несмотря на то, что размер песни периодически меняется, две с половиной минуты ее звучания проносятся словно сгусток энергии. +81 получилась более спокойной, здесь музыканты решили использовать силу духовых инструментов, но снова не удержались и наполнили композицию большим количеством арт-рок-мостиков. Одной из самых интересных песен альбома можно считать Matchbook Seeks Maniac: четыре четверти, в тексте нет сложных образов, нет нестандартных гармоний. И хотя здесь от Deerhoof остался только вокал и общий звук, все же стоит признать, что им снова удалось сделать ни на что не похожую композицию. Friend Opportunity – самая интересная и целостная запись Deerhoof Как известно, основой любой песни является мелодия, и, в подавляющем большинстве случаев, исполнение этой мелодии ложится на плечи вокалиста, а в случае Deerhoof - вокалистки. Возможно, если бы не старания Сатоми Матсузаки, которая помимо вокальных функций еще играет на бас-гитаре, то запись прозвучала бы чересчур насыщенно, слушатель мог бы просто потеряться в часто сменяющих друг друга музыкальных темах. Несущий общую идею голос, не дает песням распасться на мелкие кусочки и является неким стержнем, к тому же, Сатоми обладает редко встречающимся тембром, похожим на голос маленькой девочки и сильным акцентом, что предает особую изюминку общему звучанию группы. Но, как обычно, здесь кроется подводный камень. Ее голос звучит настолько необычно, что может стать препятствием на пути группы в сторону «песенности». Чем больше в композиции стандартных ходов, тем меньше объединяющей функции остается у вокала. Он идеально подходит для создания нереальных, полумультяшных образов в сложных вещах, но легко теряет изысканность в самых простых местах. Тем не менее, Friend Opportunity - это самая интересная, целостная и привлекательная запись Deerhoof. Если вам не знаком этот коллектив, то более подходящего времени для знакомства с ним не найти. От Deerhoof можно ожидать чего угодно, поэтому предсказать, что они сделают в следующий раз, просто невозможно. Скрыть...
Популярные аккорды Deerhoof:
алфавиту | просмотрам | случайно
  • Intro - Part 1
    e|-1---1-3-4--4---4-----8---9-7-------|
    B|-1---1------6-----6-----------9-----|
    G|-1---1------7-------7---------------|
    D|------------------------------------|
    A|------------------------------------|
    E|------------------------------------|
    
    Intro…
  • Intro
    e|-0------------------------------9------------------------------------|
    B|-----10--------9-10-9-10-9-10-9---10---------------------------------|
    G|--------11---------------------------11------------------------------|…
  • Intro:
    
    G|------------------------|
    D|------------------------|
    A|-6---4---------4--------| x2
    E|-------4---4-6---6-4-1-4|
    
    G|---------------------|
    D|--11-11-11-11-11-11--|
    A|---------------------|
    E|---------------------|
    
    G|----------------------|
    D|----------------------|
    A|----------------------|…
  • Main Riff
    -----------------------------|E
    -----------------------------|B
    -9-9---8-8--9-9-x-8--8-8-8---|G
    -8-8---7-7--8-8-x-7--7-7-7---|D
    -9-9---9-9--9-9-x-9--9-9-9---|A
    -----------------------------|E
    
    second part…
  • Tuning:EADGBE
    
    Intro
    
    E|---------------------------------------------------------------------------|
    B|------5------5-5---3-3--5------------6-----6-6--4-4--6---------------------|
    G|----2------2----------------2------3-----3---------------3-----------------|
    D|--4------4-----------------------5-----5-----------------------------------|
    A|---------------------------------------------------------------------------|
    E|---------------------------------------------------------------------------|
    
    E|---------------------------------------------------------------------------|
    B|------6------6-6---4-4--6----------6-----6-6--4-4-6------------------------|
    G|----3------3--------------3------3-----3------------3----------------------|
    D|--5------5---------------------5-----5-------------------------------------|
    A|---------------------------------------------------------------------------|
    E|---------------------------------------------------------------------------|…
  • Intro:
    
    e|-14--14--14--14-12---------------12--12---------|
    B|-------------------13--13--13-12--------13-12-10|
    G|------------------------------------------------|   Repeat 4x
    D|------------------------------------------------|
    A|------------------------------------------------|
    E|------------------------------------------------|
    
    Part…
  • Capo 8th Fret (tab relative to capo)
    
    
    ----------------------------------------------------------|
    --------------------------0-(0)--3------------------------|
    --------------------------0-(0)---------------------------|
    -----2--4--2--5--2--4--2-----2----------------------------|
    -----2--4--2--5--2--4--2----------------------------------|
    -----0--0--0--0--0--0--0----------0-----------------------|
    
    ----------------------------------------------------------|
    --------------------------0----(0)------------------------|
    --------------------------0-(0)-0-------------------------|
    -----2--4--2--5--2--4--2-----2--0-------------------------|
    -----2--4--2--5--2--4--2--------3-------------------------|
    -----0--0--0--0--0--0--0-------(0)------------------------|…
  • Standard Tuning
    Pick style
    
    Riff 1
    G|--------------|--------------|--------------|
    D|--------------|--------------|--------------|
    A|-----5-5------|--------------|--------------|
    E|-7-7----------|-7-7-0-0------|-4-4-3-3------|
    
    Riff…
  • (acoustic)
    ---5--5--5--5--5--5--7--7--7--7--7--7---|
    -7--7--7--7--7--7-----------------------|
    -------------------9--9--9--9--9--9--9--|
    --7--7--7--7--7--7--9--9--9--9--9--9--9-|
    ----------------------------------------|
    ----------------------------------------|…
  • -standard tuning (EADGBE)
    ----------------------------------
    
    |-----------------|-------------|----------------|----------------|----------------|
    |-----------------|-------------|----------------|----------------|----------------|
    |-----------------|-4--4--4--4--|-4--4--4--4--4--|-4--4--4--4--4--|-4--3~~~~~~~~---|
    |-1-------5-------|-2--2--2--2--|-2--2--2--2--2--|-2--2--2--2--2--|-2--4~~~~~~-----|
    |-----------------|-------------|----------------|----------------|----------------|
    |-3-------5-------|-4--4--4--4--|-4--4--4--4--4--|-4--4--4--4--4--|-4--2~~~~~~~----|…
  • Guitar 1
    
    e|----------------------------|
    B|----------------------------|
    G|-5--5-5-5-5-5--5--5-5-5--5--|
    D|----------------------------| x24
    A|----------------------------|
    E|----------------------------|
    
    
    
    I'm…
  • Tuning: all strings slightly tuned down from standard
    
    e|---------------------------------------------------------------------------|
    B|-------------------------------------8--6-66--8-7-66---8--6-66--8-7-66-----|
    G|-8--6-66--8-7-66---8--6-66--8-7-66---8--6-66--8-7-66---8--6-66--8-7-66-----|
    D|---------------------------------------------------------------------------|
    A|---------------------------------------------------------------------------|
    E|---------------------------------------------------------------------------|
    
    e|---------------------------------------------------------------------------|
    B|---------------------------------------------------------------------------|
    G|--------------8-8H10-8-8--8H10-8-8-----------------8-8H10-8-8--8H10-8-8----|
    D|-8-10--8-8-10-------------------------8-10--8-8-10-------------------------|
    A|---------------------------------------------------------------------------|
    E|---------------------------------------------------------------------------|
    
    e|--------14-------16-------18----20-18-----20-18----------------------------|
    B|--14/16----16/18----18/20----20--------20----------------------------------|
    G|---------------------------------------------------------------------------|
    D|---------------------------------------------------------------------------|
    A|---------------------------------------------------------------------------|
    E|---------------------------------------------------------------------------|
    
    e|-------10-------8-------6---8--6-----8--6----------------------------------|
    B|-14\12----12\10---10\-8---8--------8---------------------------------------|
    G|---------------------------------------------------------------------------|
    D|---------------------------------------------------------------------------|
    A|---------------------------------------------------------------------------|
    E|---------------------------------------------------------------------------|
    
    e|---------------------------------------------------------------------------|
    B|-16-13-13------16-13-13---------14-11-11--------14-11-11-------------------|
    G|----------13------------13---------------11--------------11----------------|
    D|---------------------------------------------------------------------------|
    A|---------------------------------------------------------------------------|
    E|---------------------------------------------------------------------------|
    
    play…
  • Main Riff
    -1-1--1-3-3--3-6-6--6-6-6--6--|E
    -1-1--1-3-3--3-6-6--6-6-6--6--|B
    -2-2--2-4-4--4-7-7--7-7-7--7--|G
    -3-3--3-5-5--5-8-8--8-8-8--8--|D
    -3-3--3-5-5--5-8-8--8-8-8--8--|A
    -1-1--1-3-3--3-6-6--6-6-6--6--|E
    
    -1-1--1-3-3--3-6-6--6-6-6--6--|E
    -1-1--1-3-3--3-6-6--6-6-6--6--|B
    -2-2--2-4-4--4-7-7--7-6-6--6--|G
    -3-3--3-5-5--5-8-8--8-8-8--8--|D
    -3-3--3-5-5--5-8-8--8-8-8--8--|A
    -1-1--1-3-3--3-6-6--6-6-6--6--|E
    
    Pre-Chorus/…
  • Main Riff, Verse
    e|--------------------------------------------------------------------|
    B|--------------------------------------------------------------------|
    G|-----7---9-----14-12-------5------7-------------9-------------------|…
  • Intro played throughout whole song
    E|---------------------------------------------------------------------------|
    B|---------------------------------------------------------------------------|
    G|---------------------------4-4-4-4-4-4-4-4-4-4-4-4-4-4-4-4-----------------|
    D|---------------------------6-6-6-6-6-6-6-6-4-4-4-4-4-4-4-4-----------------|
    A|---------------------------------------------------------------------------|
    E|---------------------------------------------------------------------------|…
  • e|-----6-----5------------0--------------------------6----5----------------|
    B|-----6-----6------8\\\\\2--------------------3h5h6-6----6----13\\11--10~-|
    G|---7-------5------6\\\\\0-------2p0---5p3p2h3------7----5----12\\9-------|
    D|-----------7------5\\\\\2----2h3---2h3-------------8----7----14\\11------|
    A|-----------8------7--------------------------------8----8----------------|
    E|-------------------------------------------------------------------------|…
  • repeat.   then that cool fill
    -----0--------------------------------------0~~~----12-----------------8--7-----------|
    -----8-----------13------------------------/sl/13-----13---------0~~~~----0-----------|
    -----9----////---14-------------------------0~~------(12)-------/sl/7---------0----0--|
    -----10----------15-----------------------------------------------------------2----3--|
    -----10----------15-----------------------------------------------------------3----3--|
    -----8-----------13--1-1-1-1-1-1----------------------------------------------1----1--|
    
    
    --------------------------------------------------0----------------------------------|
    -----------4-----------------4----------4---3-----5--/////---------------------------|
    ---------5--------5--------5---------5------4----------------------------------------|
    -------5--------5--------5------------------5----------------------------------------|
    -----x-----------------x-------------------------------------------------------------|
    -----4--4--4-44-4-4--4-4--------------------3----------------------------------------|
    
    just…
Наверх