Аккорды «Def Leppard»

Def Leppard
Def Leppard (искаженное англ. Deaf Leopard — глухой леопард) — британская рок-группа из Шеффилда, Йоркшир, Англия; образована в 1977 году. Их стилевая манера с годами претерпела ряд изменений, двигаясь от NWOBHM к коммерческому хард-року... Def Leppard дебютировали как NWOBHM-группа с альбомом On through the Night в 1980 году. Пик популярности этой группы пришёлся на 1984-89 годы, когда вышли их платиновые альбомы «Pyromania» и «Hysteria». Синглы с диска «Hysteria» оказались наиболее успешными… Читать полностью... Def Leppard (искаженное англ. Deaf Leopard — глухой леопард) — британская рок-группа из Шеффилда, Йоркшир, Англия; образована в 1977 году. Их стилевая манера с годами претерпела ряд изменений, двигаясь от NWOBHM к коммерческому хард-року... Def Leppard дебютировали как NWOBHM-группа с альбомом On through the Night в 1980 году. Пик популярности этой группы пришёлся на 1984-89 годы, когда вышли их платиновые альбомы «Pyromania» и «Hysteria». Синглы с диска «Hysteria» оказались наиболее успешными за всю их карьеру: «Love Bites» (1-е место в США), «Pour Some Sugar On Me» (2-е место в США), «Armageddon It» (3-е место в США). В 1995 году были занесены в Книгу рекордов Гиннеса как единственные исполнители, выступившие на трёх континентах в течение одних суток. Эта вечно популярная английская хард-роковая группа была сформирована в 1977 году в Шеффилде (Йоркшир) Питом Уиллисом (р. 16 февраля 1960, Шеффилд, Англия; гитара), Риком Сэведжем (р. 2 декабря 1960, Шеффилд, Англия; бас) и Тони Кеннингом (ударные) под названием Atomic Mass. Когда Джо Эллиотт (р. 1 августа 1959, Шеффилд, Англия; вокал) присоединился к ним, команда сменила вывеску на Def Leppard. Группа является по сути дела одной из родоначальников стиля NWOBHM (классическим примером этого является пластинка Pyromania, имеющая огромный успех в мире и выпускаемая большими тиражами). Но в дальнейшим ребята облегчили свой саунд, с тех пор их принято считать приверженцами стиля "мелодичный хард-рок". Квартет поначалу снимал крохотную каморку на фабрике по производству ложек, которая служила им местом для репетиций 5 раз в неделю. В начале 1978-го Уиллис встретил другого молодого гитариста Стива Кларка (р. 23 апреля 1960, Шеффилд, Англия, у. 8 января 1991, Лондон, Англия), и пригласил его присоединиться к их банде. Кларк согласился только при условии, что они будут играть некоторые "надлежащие" концерты, и в июле того же года Def Leppard дебютировали в Вестфилдской школе перед аудиторией из 150 детей. После нескольких сейшенов группа решила избавиться от своего ударника, заменив его Фрэнком Нуном, который до этого работал с другой шеффилдской командой Next Band. В 1979 году Def Leppard записали дебютный EP на "Bludgeon Riffola Records", включивший в себя Ride Into the Sun, Getcha Rocks Off и The Overture. Вскоре после его выхода Фрэнк вернулся в Next Band и постоянным барабанщиком Def Leppard стал Рик Аллен (р. 1 ноября 1963, Шеффилд, Англия). Позднее в том же году группа играла на разогреве у Сэмми Хагара и AC/DC во время гастролей этих музыкантов по Англии. Это привлекло большое внимание к группе, и тогда им предложили контракт с "Vertigo Records". Их дебютный альбом On Through the Night вышел в 1980 году и сразу же вскарабкался на 15 позицию в британских чартах. Def Leppard организовали свой первый тур по Англии, а также впервые посетили Америку, к великому неудовольствию английских фанов, обвинивших группу в продажности и закидавших её пустыми пивными банками на фестивале в Рединге тем летом. Диск следующего года High 'N' Dry был издан с продюсером Робертом Лэнджем и достиг 26 позиции в британских чартах и 38-й в штатовских. При записи Pyromania в 1983-м в составе произошло первое изменение начиная с 1979 года. После многочисленных прогулов сессий и появления на них в нетрезвом виде Пит Уиллис был уволен и заменен экс-гитаристом Girl Филом Колленом (р. 8 декабря 1957, Лондон). Pyromania стала наиболее успешным альбомом Def Leppard, поднявшись на вторую строчку в американских хит-парадах, но парни не смогли воспользоваться этим импульсом. Накануне 1984 года ударник Рик Аллен попал в автокатастрофу, в результате которой он потерял левую руку. Но группа не бросила в беде своего барабанщика и не возобновляла работу, пока Аллен не придумал специально разработанный комплект ударных, на большинстве которых можно было играть с помощью ног. Из-за этих событий была задержана запись альбома Hysteria, который был наконец выпущен в 1987 году и разошёлся 15-миллионным тиражом по всему миру. Этот диск возглавил хит-парады по обе стороны Атлантики. Наибольшим успехом пользовались такие композиции, как Armageddon It, Pour Some Sugar on Me, Animal, Hysteria и Love Bites. В поддержку альбома Def Leppard организовали 14-месячный тур, закончившийся в "Memorial Arena" в Сиэтле в октябре 1988-го. Это было последним концертом Стива Кларка с группой. Спустя некоторое время Кларк был найден мёртвым в своей лондонской квартире после употребления смертельной смеси наркотиков и алкоголя. Остальные участники группы впоследствии рассказали, что они потратили немало времени, пытаясь отучить Стива от его самоуничтожающего образа жизни. Столкнувшись с очередной трагедией, Def Leppard мужественно выстояли и занялись записью своего пятого альбома Adrenalize, который был выпущен в марте 1992 и сразу же после своего появления возглавил английские и американские хит-парады (в отличие от Hysteria, которая 49 недель ползла к вершине в США). Встреченный с обычной смесью презрения критиков и восхищения публики, Def Leppard выступили на концерте памяти Фредди Меркьюри на стадионе Уэмбли. Здесь же впервые появился новый гитарист группы Вивиан Кэмпбелл (р. 25 августа 1962, Белфаст, Северная Ирландия; экс - Trinity, Whitesnake, Dio, Sweet Savage, Riverdogs, Clock и Shadow King). В 1995 году Рик Аллен оказался перед возможностью провести два года в американской тюрьме после того, как он был арестован за нападение на свою жену. Тем временем были выпущены сборник лучших вещей группы и новый студийный альбом Slang. В 1996-м Джо Эллиотт появился в фильме "When Saturday Comes". Сделанная в классической манере Def Leppard Euphoria 1999-го звучала немного утомлённо, хотя и заняла ведущие позиции в англо-американских хит-парадах. 5 сентября 2000 Def Leppard были введены в "Rock Walk of Fame" на Hollywood's Sunset Boulevard их другом Брайаном Мэем из группы Queen. В 2001 VH1 представили фильм "Hysteria - The Def Leppard Story", биографический фильм о группе. Десятый альбом группы вышел в июле 2002 и был назван просто X. Получился он довольно попсовым, и это не удивительно, в нем были замешаны Britney Spears и Backstreet Boys. Альбом X считается наименее успешным выпуском группы, хотя и очень приятным на слух. 23 мая 2006 Def Leppard выпустили альбом "каверов", названный Yeah! В мае 2008 выходит альбом Songs From the Sparkle Lounge, который немного не дотягивает в американских хит-парадах до первого места. Публика очень тепло встретила альбом, и его можно назвать одной из самых выдающихся работ Def Leppard. Обложка весьма напоминает альбом The Beatles Sgt. Pepper’s Lonely Hearts Club Band, но кроме этого у них нет ничего общего. Состав Джо Эллиотт (Joe Elliott) — вокал Рик Сэвидж (Rick Savage) — бас Рик Аллен (Rick Allen) — барабаны Фил Коллен (Phil Collen) — гитара Вивьен Кэмпбелл (Vivian Campbell) — гитара Дискография On Through the Night (1980) High ‘N’ Dry (1981) Pyromania (1983) Hysteria (1987) Adrenalize (1992) Retro Active (1993) Slang (1996) Euphoria (1999) X (2002) Yeah! (2006) Songs From The Sparkle Longue (2008) Viva! Hysteria (2013) Скрыть...
Популярные аккорды Def Leppard:
алфавиту | просмотрам | случайно
  • (two guitars)
    
        Guitar 1.
      і----------------|----------------------|-----------------------|--------
      і-------10--12---|-------------10--12---|--------------10--12---|--------
      і---9------------|--9------9------------|--10------9------------|-12(b)14…
  • Intro: 
    
       Guitar 1 (w/dist)
    E|-----------------|-----------------|-----------------|------------------|
    B|-----------------|-----------------|-----------------|------------------|
    G|---9-8---8-9-8---|---6-9-----9-----|---7-9---6-9-6---|-7-6-------9-11-9-|
    D|-9-----9-------9-|-7-----6-9---9-6-|-7-----7-------7-|-----7------------|
    A|-----------------|-----------------|-----------------|-------7----------|
    E|-----------------|-----------------|-----------------|------------------|…
  • Intro
    
    [E] [B] [A] [B] x2
    
    
    Verse1
                      [E]                                      [A] 
    You could have a change of heart, if only you would only change your mind
                 [C#m]…
  • Intro:  [A]  [D]  [G]  [D]  (x2)
     
    
     Verse:
     	      [A]  [D]        [G]       [D] 
     	Walk away,     if you want to.
     	      [A]  [D]        [G]       [D] 
     	It's okay      if you need to.
     		[A]	 [D]           [E]   [D]…
  • Intro
     ------------------------------------------------
     ------------------------------------------------
     ------------------------------------------------
     ---------2-----4--------5---4------2----2-------
     -----2h3---3/5------3/5---5------3---3--2-------…
  • C#m                    F#m A
    Feelin' like it's all over
    C#m                      A H E F#
    Feelin' like there's no love
    C#m                    E F#m A
    Feelin' like it's not easy
    C#m                      C#m H A
    Breathin'…
  • Intro;
     
     						    v guitar 2 in here
     -------------------------------------------------------------------
     -------------------------------------------------------------------
     ----------0-------0--------0--------------0---------------0--------…
  • Fig. A									end  A
     Sustain chords, light tremolo arm.
     ------------------------------------------------------------------------------
     -----------6-------------------3---------------------6----------------1-------
     -----------5-------------------3------------------3-------------------0--0----…
  • Intro:
     ----------------------------------------------------------
     ----------------------------------------------------------
     ----6-4---4--6vvvvv-4--4-6vvvv----6-4--4--6vvv-4--3vvvv---
     --------6-------------------------------------------------…
  • Intro and main riff:
    
    E|----------------------|------------------------|
    H|--5--5--5--5--5----3--|----2--3--2--3--2-------| 
    G|--4--4--4--4--4----2--|----2--2--2--2--2-------|  } x5
    D|----------------------|------------------------|…
  • INTRO
    
    Spanish Guitar
    Eb-----------------------------------------------------------------------------------------
    Bb-----------------------------------------------------------------------------------------
    Gb--6-8-9--------------------------------------6-8-9---------------------------------------
    Db---------------6-7--9-11-------------------6--------------6-7--9-11----------------------
    Ab--------------------------7--/9--7-----------------------------------7--/9--7------------
    Eb-----------------------------------9-7----------------------------------------9-7--------
    
    [Electric…
  • Chords :
    --------
    A      : x02220   or 57765
    Dsus2  : xx0320
    E      : 022100  
    Bm     : x24432
    Bm7    : x24232
    E7     : 022130
    C#m    : X46654
    
    
    Intro : The song is played with 2 electric guitar, but since I play…
  • Intro:
    e|-------------------------|----------------------|
    b|-------------------------|----------------------|
    g|---4-4-4--4--2--2vvvv----|--4-4-4--4--2---2--4--|
    d|---2-2-2--2--0--0vvvv----|--4-4-4--4--2---0--2--|
    a|-------------------------|----------------------|
    e|-------------------------|----------------------|
    
    e|----------------|
    b|--0-------0-----|
    g|--2b4r2p0-2b4---|
    d|----------------|
    a|----------------|
    e|----------------|
    
    
    Verse:…
  • Intro:
     ~~~~~~       
            E           B             A           A4
     
     |------0---0---0---0---0-----|---0---0-------0----------|
     |------5---5---5---4---4-----|---5---5-------3----------|
     |------4---4---4---4---4-----|---2---2-------2----------|…
  • this is the intro...
    
    |------------------------------|-----------------0-------|
    |------------------------------|--------0---------------0|
    |------2---4-------------------|-----4------5--------5---|
    |---2------------2-----------3-|------------3------------|
    |0---------------------0-------|-------------------------|
    |------------------------------|-------------------------|
    
    
    |------------------------------|----------------0--------|
    |------------------------------|--------0----------0-----|
    |------2---4-------------------|---4--------5----------5-|
    |---2----------2------------3--|------------3------------|
    |0-------------------0---------|-------------------------|
    |------------------------------|-------------------------|
    
    
    This…
  • Intro:	A - E | D | A - E | f#m
     
     
     Verse 1
     	A	E	D
     I believe that something deep inside
     A		E		f#m
     That shows to me from time to time
     A		E	D
     As you fell down for love was such a crime
     A		E		f#m
     The more…
  • Intro
    e----------------------
    B--------3-------------
    G------0-2-------------
    D-2----0-0-------------
    A-0--------------------
    E----------------------
    
    
    Verse
    e----------------------------
    B------------3---------------
    G----------0-2---------------
    D-2--------0-0---------------
    A-0--------------------------
    E----------------------------
    
    
    Pre-chorus…
  • INTRO Lick: 
     
             Am                       A5
     
     E--------------------------
     B|-------1-------0---------------------
     G-----------|--7------52--------------
     D|---------2--------2/5-|----5--------2------------
     A|---0--------0---------|-------0--------0---------…
  • The Chords During The First Verse Follow This Order:
    
       E      D      C       D      (Then Repeats Through Verse)
    
    
     Before The Chorus Theres A Pre Chorus That Uses The Following Chord
     Order:
    
    
       C       E     (Repeats)…
  • Intro
    
    GTR 1
    
    Eb-----------------------------------------------------------------------------
    Bb-----------------------------------------------------------------------------
    Gb--7----------------7---------------------------------------------------------
    Db-----9----9-9--9------9----9-9--9--------------------------------------------
    Ab-----------------------------------------------------------------------------
    Eb-----------------------------------------------------------------------------
    
    
    GTR…
  • Intro
     Let ring, clean tone                         w/ dist on 4th time
     E----------------------------------------------------------
     B--------------------------------2-------------------------
     G|-------0--------0--------0--------0--------2-------------------------…
  • 1 e & a  2 e & a  3 e & a  4 e & a  1 e & a  2 e & a  3 e & a  4 e & a
     E |---1--------1----------1------------------------------------------------:|
     B ---2------2--------6------------1------1------2--/4----4-6---:|
     G…
  • intro/verse:
    
    g|---------------||
    d|-----5---------||
    a|--7-5-5-7-3-5-2||
    e|-0-------------||
    
    
    bridge:
    
    g|--------------------------||
    d|---------------2-2-0-0-3-3||
    a|--------3-3-2-2-----------||
    e|-0-0-3-3------------------||
    
    
    chorus
    
    g|------------------||
    d|------------------||
    a|--5-0-3-2-3-2-0---||
    e|-0-------------3-0||
    
    
    Song…
  • Chords...
    
        Em		  F		G	   Am		E	     Dm
    E A D G B E  E A D G B E  E A D G B E  E A D G B E  E A D G B E  E A D G B E  
    o     o o o                   o o        o       o        o          o
    -----------  -----------  -----------…
  • Tuning: Standard
    
    
    INTRO
    e|---------------------------------------------------------------------------|
    B|---------------------------------------------------------------------------|
    G|---4-4---2-2---------------------------------------------------------------|
    D|---4-4---2-2---2-2---------------------------------------------------------|
    A|---2-2---0-0---2-2---------------------------------------------------------|
    E|---------------0-0---------------------------------------------------------|
    
    
    VERSE
    e|---------------------------------------------------------------------------|
    B|---------------------------------------------------------------------------|
    G|--4-4--2~~-----2~~----------------4-4--2~~---------------------------------|
    D|--4-4--2~~-2---2~~--2-2-----------4-4--2~~--2-2----------------------------|
    A|--2-2--0~~-2---0~~--2-2-----------2-2--0~~--2-2----------------------------|
    E|-----------0--------0-0---------------------0-0----------------------------|
    
    
    VERSE…
  • INTRO
    
    E-------0--------0---------------0---------0------------------------3---------------------|
    B---3-----3------------3-----3-----3----------------3---------------0---------------------|
    G-------------2-----2------------------2-------2--------------------0---------------------|
    D-------------------------------------------------------------------0---------------------|
    A-------------------------------------------------------------------2---------------------|
    E-------------------------------------------------------------------3---------------------|
    
    
    VERSE…
  • Repeat once
    E------------------------------------------------------------------------------------------
    B--------3------0-0------1--0--------------------------------------------------------------
    G----0--------0--------0-------0-----------------------------------------------------------
    D--2---2----2--------2---------------------------------------------------------------------
    A------------------------------------------------------------------------------------------
    E------------------------------------------------------------------------------------------
    
    
    E--3-------------------0--------------------0-----------1-1-1-1-------------3--------------
    B--0-------------------1--------------------0-----------1-1-1-1-------------0--------------
    G--0-------------------0--------------------0-----------2-2-2-2-------------0--------------
    D--0-------------------2--------------------2-----------3-3-3-3-------------0--------------
    A--2-------------------3--------------------2-------------------------------2--------------
    E--3-------------------0--------------------0-------------------------------3--------------
    
    
    VERSE
    
    E--3-----------------3----------------3------------------3---------------------------------
    B--0-----------------0----------------0------------------0---------------------------------
    G--0-----------------0----------------0------------------0---------------------------------
    D--0-----------------0----------------0------------------0---------------------------------
    A--2-----------------2----------------2------------------2---------------------------------
    E--3-----------------3----------------3------------------3---------------------------------
    
    
    BRIDGE
    
    E------------------------------------------------------------------------------------------
    B--------1------------3--------------------------------------------------------------------
    G------0----0-------0----0------0----------------------------------------------------------
    D----2------------2---------0-2------------------------------------------------------------
    A--3------------3--------------------------------------------------------------------------
    E------------------------------------------------------------------------------------------
    
    
    CHORUS
    
    E--3---------2---------2--------3---------2--------2--------0-------2----------------------
    B--0---------3---------3--------0---------3--------3--------1-------3----------------------
    G--0---------2---------4--------0---------2--------4--------0-------2----------------------
    D--0---------0---------4--------0---------0--------4--------2-------0----------------------
    A--2----------------------------2---------------------------3------------------------------
    E--3----------------------------3---------------------------0------------------------------
    
    INTRO,…
  • INTRO ONLY:
    G|--------------------------|----------------------------------|
    D|--------------------------|----------------------------------|
    A|---------------3333-5555--|-------------3333-5555------------|
    E|----6666-6666-------------|--6666-6666-----------------------|
    
    G|--------------------------|
    D|--------------------------|
    A|-------------3333-5533----|
    E|--6666-6666---------------|
    
    
    MAIN…
  • INTRO(x4)
              e------------------------------------------------------------------------------
              B------3-3-3-3---3-3-3-2-------------------------------------------------------
              G-----4-4-4-4---2-2-2-2--------------------------------------------------------…
  • Intro (Riff A):
     
     
     -----------3-------------------------------------3---------------|
     
     |--5---5---7---7-------3----3----4------------5--5--7--7-----3---3---4---4---|
     
     |--5---5---7---7-------4----3----3----5-------5--5--7--7-----4---3---3---3---|…
  • INTRO 1
    
    E----------------------------------------------------------------------------------------
    B----------------------------------------------------------------------------------------
    G----0-----0---0---------------0---0-----0---0---------------0---------------------------
    D------0---------4--0---4----4-------0---------4--0---4----4-----------------------------
    A----------------------------------------------------------------------------------------
    E--3-----3---3--------3----3-----3-----3---3--------3----3-------------------------------
    |
    |
    |
    E----------------------------------------------------------------------------------------
    B----------------------------------------------------------------------------------------
    G----0-----0-----------------------0-----0-----------------------------------------------
    D----------------4--0---4----------------------4--0---4----------------------------------
    A----------------------------------------------------------------------------------------
    E--3-----3------------3----------3-----3------------3------------------------------------
    
    
    INTRO…
  • INTRO [For acoustic]
    
    A         E             D           Bm      A       E      D   Bm
    
    VERSE 1 [Acoustic]
    
            A       E                     G         D
    I gave in            when you gave out
    
                        A…
  • V = Palm mute
     / = Slide up
      = Slide down
     /B = Bend
     ~ = Vibrato
     ^ = Hammer on/off
    
    
            A             C             E             F             G
     0 X-0-------X 0 X---X-0---0 0 X-X-------X 0 X-X-------X 0 --X-0-0-0-X…
  • INTRO RIFF
    					Repeat twice
    Eb----------------------------------------------------------------------------------------
    Bb----------------------------------------------------------------------------------------
    Gb-----------------------------------------------------777--------------------------------
    Db--2---2-2--0-0-----------------------------2-2--0-0--777--7-7---------------------------
    Ab--2-------------2/5-5-5------------------------------555--7-7---------------------------
    Eb--0---------------------5'3'5--5-5--3^-0------------------5-5---------------------------
    
    
    VERSE…
  • standard tuning (EADGBe)
    
    eI-------------------------------------------------I
    BI-------------------------------------------------I
    GI-------------------------------------------------I
    DI-------------------------------------------------I
    AI---------7--7-7--7-7--7-7-75---5--5-5--5-5--5-5-I
    EI-0--0-0------------------------------------------I
    
    fill…
  • Intro
    e------------------------------------------------------------------------
    B------------------------------------------------------------------------
    G----------------------------------4-----4---------4-----4---------------
    D--------------------------------4---4-2---4-----4---4-2---4--2----------
    A-----2-----2-------2-----2----2---------------2--------------2----------
    E-2-----2-2---2-2-----2-2---2---------------------------------0---///1---
    
    
    Verse
    e-----------------------
    B----------8-8-7-8-7----
    G----------7-7-7--------
    D-7-----7---------------
    A-7-----7---------------
    E-5-----5---------------
    
    
    Pre-Chorus
    e------------------------------------
    B------------------------------------
    G------------------------------------
    D------------------------------------
    A-9-7-9-7-9-9-7-9-7--7----2-----0h2--
    E-7-7-7-7-7-7-7-7-7--5----0--0h2-----
    
    
    Chorus
    e------------------------
    B------------------------
    G-------5--7-------------
    D-7--5--5--7-------------
    A-7--5--3--5-------------
    E-5--3-------------------…
  • (INTRO)[E]  [A]  [E]  [A]
    
    
    (VERSE 1)
    [E]                   [A]             [E]
    Here I am, I'm in the wrong bed again
                             [A]
    It's a game I just can't win
    [E]                      [A]…
Наверх